  0
SECTION
  2
HEADER
  9
$ACADVER
  1
AC1014
  9
$ACADMAINTVER
 70
     5
  9
$DWGCODEPAGE
  3
ANSI_1252
  9
$INSBASE
 10
-523.574709
 20
343.6
 30
0.0
  9
$EXTMIN
 10
-523.849585
 20
313.532232
 30
-0.000006
  9
$EXTMAX
 10
60.949536
 20
1057.119877
 30
0.421751
  9
$LIMMIN
 10
0.0
 20
0.0
  9
$LIMMAX
 10
3360.0
 20
2376.0
  9
$ORTHOMODE
 70
     1
  9
$REGENMODE
 70
     1
  9
$FILLMODE
 70
     1
  9
$QTEXTMODE
 70
     0
  9
$MIRRTEXT
 70
     0
  9
$DRAGMODE
 70
     2
  9
$LTSCALE
 40
1.0
  9
$OSMODE
 70
     0
  9
$ATTMODE
 70
     1
  9
$TEXTSIZE
 40
3.5
  9
$TRACEWID
 40
0.05
  9
$TEXTSTYLE
  7
ROMANS
  9
$CLAYER
  8
035-DWG
  9
$CELTYPE
  6
BYLAYER
  9
$CECOLOR
 62
   256
  9
$CELTSCALE
 40
1.0
  9
$DELOBJ
 70
     1
  9
$DISPSILH
 70
     0
  9
$DIMSCALE
 40
8.0
  9
$DIMASZ
 40
2.5
  9
$DIMEXO
 40
1.5
  9
$DIMDLI
 40
5.0
  9
$DIMRND
 40
0.0
  9
$DIMDLE
 40
0.0
  9
$DIMEXE
 40
1.0
  9
$DIMTP
 40
0.0
  9
$DIMTM
 40
0.0
  9
$DIMTXT
 40
3.0
  9
$DIMCEN
 40
-2.0
  9
$DIMTSZ
 40
0.0
  9
$DIMTOL
 70
     0
  9
$DIMLIM
 70
     0
  9
$DIMTIH
 70
     0
  9
$DIMTOH
 70
     0
  9
$DIMSE1
 70
     0
  9
$DIMSE2
 70
     0
  9
$DIMTAD
 70
     1
  9
$DIMZIN
 70
     8
  9
$DIMBLK
  1

  9
$DIMASO
 70
     1
  9
$DIMSHO
 70
     1
  9
$DIMPOST
  1

  9
$DIMAPOST
  1

  9
$DIMALT
 70
     0
  9
$DIMALTD
 70
     2
  9
$DIMALTF
 40
25.4
  9
$DIMLFAC
 40
1.0
  9
$DIMTOFL
 70
     1
  9
$DIMTVP
 40
0.0
  9
$DIMTIX
 70
     0
  9
$DIMSOXD
 70
     0
  9
$DIMSAH
 70
     0
  9
$DIMBLK1
  1

  9
$DIMBLK2
  1

  9
$DIMSTYLE
  2
STANDAARD
  9
$DIMCLRD
 70
   256
  9
$DIMCLRE
 70
   256
  9
$DIMCLRT
 70
   256
  9
$DIMTFAC
 40
0.75
  9
$DIMGAP
 40
1.5
  9
$DIMJUST
 70
     0
  9
$DIMSD1
 70
     0
  9
$DIMSD2
 70
     0
  9
$DIMTOLJ
 70
     1
  9
$DIMTZIN
 70
     8
  9
$DIMALTZ
 70
     8
  9
$DIMALTTZ
 70
     8
  9
$DIMFIT
 70
     3
  9
$DIMUPT
 70
     0
  9
$DIMUNIT
 70
     2
  9
$DIMDEC
 70
     0
  9
$DIMTDEC
 70
     1
  9
$DIMALTU
 70
     2
  9
$DIMALTTD
 70
     2
  9
$DIMTXSTY
  7
ROMANS
  9
$DIMAUNIT
 70
     0
  9
$LUNITS
 70
     2
  9
$LUPREC
 70
     4
  9
$SKETCHINC
 40
0.1
  9
$FILLETRAD
 40
6.0
  9
$AUNITS
 70
     0
  9
$AUPREC
 70
     4
  9
$MENU
  1
wtb2
  9
$ELEVATION
 40
0.0
  9
$PELEVATION
 40
0.0
  9
$THICKNESS
 40
0.0
  9
$LIMCHECK
 70
     0
  9
$BLIPMODE
 70
     0
  9
$CHAMFERA
 40
0.0
  9
$CHAMFERB
 40
0.0
  9
$CHAMFERC
 40
0.0
  9
$CHAMFERD
 40
0.0
  9
$SKPOLY
 70
     0
  9
$TDCREATE
 40
2451578.409790035
  9
$TDUPDATE
 40
2452576.386978182
  9
$TDINDWG
 40
3.1095070139
  9
$TDUSRTIMER
 40
3.1095070139
  9
$USRTIMER
 70
     1
  9
$ANGBASE
 50
0.0
  9
$ANGDIR
 70
     0
  9
$PDMODE
 70
     3
  9
$PDSIZE
 40
0.0
  9
$PLINEWID
 40
0.0
  9
$COORDS
 70
     2
  9
$SPLFRAME
 70
     0
  9
$SPLINETYPE
 70
     6
  9
$SPLINESEGS
 70
     8
  9
$ATTDIA
 70
     0
  9
$ATTREQ
 70
     1
  9
$HANDLING
 70
     1
  9
$HANDSEED
  5
28D
  9
$SURFTAB1
 70
     6
  9
$SURFTAB2
 70
     6
  9
$SURFTYPE
 70
     6
  9
$SURFU
 70
     6
  9
$SURFV
 70
     6
  9
$UCSNAME
  2

  9
$UCSORG
 10
0.0
 20
0.0
 30
0.0
  9
$UCSXDIR
 10
1.0
 20
0.0
 30
0.0
  9
$UCSYDIR
 10
0.0
 20
1.0
 30
0.0
  9
$PUCSNAME
  2

  9
$PUCSORG
 10
0.0
 20
0.0
 30
0.0
  9
$PUCSXDIR
 10
1.0
 20
0.0
 30
0.0
  9
$PUCSYDIR
 10
0.0
 20
1.0
 30
0.0
  9
$USERI1
 70
     0
  9
$USERI2
 70
     0
  9
$USERI3
 70
     0
  9
$USERI4
 70
     0
  9
$USERI5
 70
     0
  9
$USERR1
 40
0.0
  9
$USERR2
 40
0.0
  9
$USERR3
 40
0.0
  9
$USERR4
 40
0.0
  9
$USERR5
 40
0.0
  9
$WORLDVIEW
 70
     1
  9
$SHADEDGE
 70
     3
  9
$SHADEDIF
 70
    70
  9
$TILEMODE
 70
     1
  9
$MAXACTVP
 70
    16
  9
$PINSBASE
 10
0.0
 20
0.0
 30
0.0
  9
$PLIMCHECK
 70
     0
  9
$PEXTMIN
 10
1.000000E+20
 20
1.000000E+20
 30
1.000000E+20
  9
$PEXTMAX
 10
-1.000000E+20
 20
-1.000000E+20
 30
-1.000000E+20
  9
$PLIMMIN
 10
0.0
 20
0.0
  9
$PLIMMAX
 10
12.0
 20
9.0
  9
$UNITMODE
 70
     0
  9
$VISRETAIN
 70
     0
  9
$PLINEGEN
 70
     0
  9
$PSLTSCALE
 70
     0
  9
$TREEDEPTH
 70
  3020
  9
$PICKSTYLE
 70
     1
  9
$CMLSTYLE
  2
STANDARD
  9
$CMLJUST
 70
     0
  9
$CMLSCALE
 40
1.0
  9
$PROXYGRAPHICS
 70
     1
  9
$MEASUREMENT
 70
     0
  0
ENDSEC
  0
SECTION
  2
CLASSES
  0
CLASS
  1
LWPOLYLINE
  2
AcDbPolyline
  3
"AutoCAD"
 90
        0
280
     0
281
     1
  0
CLASS
  1
HATCH
  2
AcDbHatch
  3
"ACAD_SEDONA"
 90
        0
280
     0
281
     1
  0
CLASS
  1
ACMDATUMID
  2
AcmDatumId
  3
AutoCadMServices
 90
      255
280
     1
281
     1
  0
CLASS
  1
ACMFCFRAME
  2
AcmFCF
  3
AutoCadMServices
 90
      255
280
     1
281
     1
  0
CLASS
  1
AMLOADER
  2
AMLoader
  3
AMAcad
 90
        0
280
     0
281
     0
  0
ENDSEC
  0
SECTION
  2
TABLES
  0
TABLE
  2
VPORT
  5
12
100
AcDbSymbolTable
 70
     2
  0
VPORT
  5
28C
100
AcDbSymbolTableRecord
100
AcDbViewportTableRecord
  2
*ACTIVE
 70
     0
 10
0.0
 20
0.0
 11
1.0
 21
1.0
 12
-231.450024
 22
685.326055
 13
0.0
 23
0.0
 14
20.0
 24
20.0
 15
40.0
 25
40.0
 16
0.0
 26
0.0
 36
1.0
 17
0.0
 27
0.0
 37
0.0
 40
751.958237
 41
1.650376
 42
50.0
 43
0.0
 44
0.0
 50
0.0
 51
0.0
 71
     0
 72
 20000
 73
     1
 74
     0
 75
     0
 76
     0
 77
     0
 78
     1
  0
ENDTAB
  0
TABLE
  2
LTYPE
  5
D
100
AcDbSymbolTable
 70
     1
  0
LTYPE
  5
E
100
AcDbSymbolTableRecord
100
AcDbLinetypeTableRecord
  2
BYBLOCK
 70
     0
  3

 72
    65
 73
     0
 40
0.0
  0
LTYPE
  5
F
100
AcDbSymbolTableRecord
100
AcDbLinetypeTableRecord
  2
BYLAYER
 70
     0
  3

 72
    65
 73
     0
 40
0.0
  0
LTYPE
  5
5
100
AcDbSymbolTableRecord
100
AcDbLinetypeTableRecord
  2
CONTINUOUS
 70
     0
  3
Solid line
 72
    65
 73
     0
 40
0.0
  0
ENDTAB
  0
TABLE
  2
LAYER
  5
A
100
AcDbSymbolTable
 70
     6
  0
LAYER
  5
4
100
AcDbSymbolTableRecord
100
AcDbLayerTableRecord
  2
0
 70
     0
 62
     8
  6
CONTINUOUS
  0
LAYER
  5
20
100
AcDbSymbolTableRecord
100
AcDbLayerTableRecord
  2
025-DWG
 70
     0
 62
     7
  6
CONTINUOUS
  0
LAYER
  5
1B
100
AcDbSymbolTableRecord
100
AcDbLayerTableRecord
  2
035-DWG
 70
     0
 62
     2
  6
CONTINUOUS
  0
LAYER
  5
67
100
AcDbSymbolTableRecord
100
AcDbLayerTableRecord
  2
DEFPOINTS
 70
     0
 62
     7
  6
CONTINUOUS
  0
LAYER
  5
69
100
AcDbSymbolTableRecord
100
AcDbLayerTableRecord
  2
VHH-025
 70
     0
 62
     7
  6
CONTINUOUS
  0
LAYER
  5
76
100
AcDbSymbolTableRecord
100
AcDbLayerTableRecord
  2
VHH-035
 70
     0
 62
     2
  6
CONTINUOUS
  0
ENDTAB
  0
TABLE
  2
STYLE
  5
B
100
AcDbSymbolTable
 70
     2
  0
STYLE
  5
C
100
AcDbSymbolTableRecord
100
AcDbTextStyleTableRecord
  2
STANDARD
 70
     0
 40
0.0
 41
1.0
 50
0.0
 71
     0
 42
15.0
  3
txt
  4

  0
STYLE
  5
1C
100
AcDbSymbolTableRecord
100
AcDbTextStyleTableRecord
  2
ROMANS
 70
     0
 40
0.0
 41
1.0
 50
0.0
 71
     0
 42
3.5
  3
romans
  4

  0
ENDTAB
  0
TABLE
  2
VIEW
  5
10
100
AcDbSymbolTable
 70
     0
  0
ENDTAB
  0
TABLE
  2
UCS
  5
11
100
AcDbSymbolTable
 70
     0
  0
ENDTAB
  0
TABLE
  2
APPID
  5
14
100
AcDbSymbolTable
 70
     1
  0
APPID
  5
15
100
AcDbSymbolTableRecord
100
AcDbRegAppTableRecord
  2
ACAD
 70
     0
  0
ENDTAB
  0
TABLE
  2
DIMSTYLE
  5
16
100
AcDbSymbolTable
 70
     1
  0
DIMSTYLE
105
1E
100
AcDbSymbolTableRecord
100
AcDbDimStyleTableRecord
  2
STANDAARD
 70
     0
  3

  4

  5

  6

  7

 40
8.0
 41
2.5
 42
1.5
 43
5.0
 44
1.0
 45
0.0
 46
0.0
 47
0.0
 48
0.0
140
3.0
141
-2.0
142
0.0
143
25.4
144
1.0
145
0.0
146
0.75
147
1.5
 71
     0
 72
     0
 73
     0
 74
     0
 75
     0
 76
     0
 77
     1
 78
     8
170
     0
171
     2
172
     1
173
     0
174
     0
175
     0
176
   256
177
   256
178
   256
270
     2
271
     0
272
     1
273
     2
274
     2
340
1C
275
     0
280
     0
281
     0
282
     0
283
     1
284
     8
285
     8
286
     8
287
     3
288
     0
  0
ENDTAB
  0
TABLE
  2
BLOCK_RECORD
  5
1
100
AcDbSymbolTable
 70
     0
  0
BLOCK_RECORD
  5
2
100
AcDbSymbolTableRecord
100
AcDbBlockTableRecord
  2
*MODEL_SPACE
  0
BLOCK_RECORD
  5
7
100
AcDbSymbolTableRecord
100
AcDbBlockTableRecord
  2
*PAPER_SPACE
  0
ENDTAB
  0
ENDSEC
  0
SECTION
  2
BLOCKS
  0
BLOCK
  5
3
100
AcDbEntity
  8
0
100
AcDbBlockBegin
  2
*MODEL_SPACE
 70
     0
 10
0.0
 20
0.0
 30
0.0
  3
*MODEL_SPACE
  1

  0
ENDBLK
  5
6
100
AcDbEntity
  8
0
100
AcDbBlockEnd
  0
BLOCK
  5
8
100
AcDbEntity
 67
     1
  8
0
100
AcDbBlockBegin
  2
*PAPER_SPACE
 70
     0
 10
0.0
 20
0.0
 30
0.0
  3
*PAPER_SPACE
  1

  0
ENDBLK
  5
9
100
AcDbEntity
 67
     1
  8
0
100
AcDbBlockEnd
  0
ENDSEC
  0
SECTION
  2
ENTITIES
  0
LINE
  5
1F
100
AcDbEntity
  8
025-DWG
100
AcDbLine
 10
-44.053869
 20
518.0
 30
0.0
 11
-44.053869
 21
382.7
 31
0.0
  0
LINE
  5
21
100
AcDbEntity
  8
025-DWG
100
AcDbLine
 10
-44.490334
 20
382.7
 30
0.0
 11
-44.490334
 21
518.0
 31
0.0
  0
LINE
  5
22
100
AcDbEntity
  8
035-DWG
100
AcDbLine
 10
-46.74405
 20
382.7
 30
0.0
 11
-46.74405
 21
518.0
 31
0.0
  0
LINE
  5
23
100
AcDbEntity
  8
035-DWG
100
AcDbLine
 10
-43.074709
 20
511.860317
 30
0.0
 11
-43.074709
 21
382.7
 31
0.0
  0
LINE
  5
24
100
AcDbEntity
  8
035-DWG
100
AcDbLine
 10
-453.074709
 20
928.6
 30
0.0
 11
-453.074709
 21
343.6
 31
0.0
  0
LINE
  5
25
100
AcDbEntity
  8
025-DWG
100
AcDbLine
 10
-431.074709
 20
928.6
 30
0.0
 11
-431.074709
 21
343.6
 31
0.0
  0
LINE
  5
26
100
AcDbEntity
  8
035-DWG
100
AcDbLine
 10
-252.474709
 20
381.6
 30
0.0
 11
-252.474709
 21
776.069091
 31
0.0
  0
LINE
  5
27
100
AcDbEntity
  8
035-DWG
100
AcDbLine
 10
-218.274709
 20
343.6
 30
0.0
 11
-50.724709
 21
343.6
 31
0.0
  0
LINE
  5
28
100
AcDbEntity
  8
035-DWG
100
AcDbLine
 10
-54.074709
 20
343.6
 30
0.0
 11
-247.424709
 21
343.6
 31
0.0
  0
LINE
  5
29
100
AcDbEntity
  8
025-DWG
100
AcDbLine
 10
-251.224709
 20
373.6
 30
0.0
 11
-46.924709
 21
373.6
 31
0.0
  0
LINE
  5
2A
100
AcDbEntity
  8
035-DWG
100
AcDbLine
 10
-252.474709
 20
381.6
 30
0.0
 11
-45.674709
 21
381.6
 31
0.0
  0
LINE
  5
2B
100
AcDbEntity
  8
035-DWG
100
AcDbLine
 10
-453.074709
 20
343.6
 30
0.0
 11
-303.274709
 21
343.6
 31
0.0
  0
LINE
  5
2C
100
AcDbEntity
  8
035-DWG
100
AcDbLine
 10
-523.574709
 20
318.6
 30
0.0
 11
-302.816369
 21
318.6
 31
0.0
  0
LINE
  5
2D
100
AcDbEntity
  8
035-DWG
100
AcDbLine
 10
-523.574709
 20
373.1
 30
0.0
 11
-523.574709
 21
318.6
 31
0.0
  0
LINE
  5
2E
100
AcDbEntity
  8
035-DWG
100
AcDbLine
 10
-522.324709
 20
373.1
 30
0.0
 11
-522.324709
 21
343.6
 31
0.0
  0
LINE
  5
2F
100
AcDbEntity
  8
035-DWG
100
AcDbLine
 10
-453.074709
 20
343.6
 30
0.0
 11
-523.574709
 21
343.6
 31
0.0
  0
LINE
  5
30
100
AcDbEntity
  8
035-DWG
100
AcDbLine
 10
-462.824709
 20
404.0
 30
0.0
 11
-462.824709
 21
374.0
 31
0.0
  0
LINE
  5
31
100
AcDbEntity
  8
035-DWG
100
AcDbLine
 10
-522.324709
 20
373.1
 30
0.0
 11
-523.574709
 21
373.1
 31
0.0
  0
LINE
  5
32
100
AcDbEntity
  8
035-DWG
100
AcDbLine
 10
-453.074709
 20
374.0
 30
0.0
 11
-462.824709
 21
374.0
 31
0.0
  0
LINE
  5
33
100
AcDbEntity
  8
025-DWG
100
AcDbLine
 10
-453.074709
 20
375.5
 30
0.0
 11
-462.824709
 21
375.5
 31
0.0
  0
LINE
  5
34
100
AcDbEntity
  8
035-DWG
100
AcDbLine
 10
-453.074709
 20
394.0
 30
0.0
 11
-462.824709
 21
394.0
 31
0.0
  0
LINE
  5
35
100
AcDbEntity
  8
035-DWG
100
AcDbLine
 10
-453.074709
 20
424.0
 30
0.0
 11
-462.824709
 21
424.0
 31
0.0
  0
LINE
  5
36
100
AcDbEntity
  8
035-DWG
100
AcDbLine
 10
-462.824709
 20
404.0
 30
0.0
 11
-462.824709
 21
424.0
 31
0.0
  0
LINE
  5
37
100
AcDbEntity
  8
035-DWG
100
AcDbLine
 10
-251.224709
 20
373.6
 30
0.0
 11
-251.224709
 21
347.4
 31
0.0
  0
LINE
  5
38
100
AcDbEntity
  8
025-DWG
100
AcDbLine
 10
-218.274709
 20
320.9
 30
0.0
 11
-303.274709
 21
320.9
 31
0.0
  0
LINE
  5
39
100
AcDbEntity
  8
025-DWG
100
AcDbLine
 10
-218.274709
 20
340.3
 30
0.0
 11
-303.274709
 21
340.3
 31
0.0
  0
LINE
  5
3A
100
AcDbEntity
  8
035-DWG
100
AcDbLine
 10
-297.274709
 20
314.9
 30
0.0
 11
-224.274709
 21
314.9
 31
0.0
  0
LINE
  5
3B
100
AcDbEntity
  8
035-DWG
100
AcDbLine
 10
-297.274709
 20
346.3
 30
0.0
 11
-251.062015
 21
346.3
 31
0.0
  0
CIRCLE
  5
3C
100
AcDbEntity
  8
025-DWG
100
AcDbCircle
 10
-290.274709
 20
330.6
 30
0.0
 40
2.75
  0
LINE
  5
3D
100
AcDbEntity
  8
025-DWG
100
AcDbLine
 10
-297.274709
 20
346.3
 30
0.0
 11
-297.274709
 21
314.9
 31
0.0
  0
ARC
  5
3E
100
AcDbEntity
  8
035-DWG
100
AcDbCircle
 10
-297.274709
 20
320.9
 30
0.0
 40
6.0
100
AcDbArc
 50
180.0
 51
270.0
  0
LINE
  5
3F
100
AcDbEntity
  8
035-DWG
100
AcDbLine
 10
-303.274709
 20
340.3
 30
0.0
 11
-303.274709
 21
320.9
 31
0.0
  0
ARC
  5
40
100
AcDbEntity
  8
035-DWG
100
AcDbCircle
 10
-297.274709
 20
340.3
 30
0.0
 40
6.0
100
AcDbArc
 50
90.0
 51
180.0
  0
ARC
  5
41
100
AcDbEntity
  8
035-DWG
100
AcDbCircle
 10
-247.424709
 20
347.4
 30
0.0
 40
3.8
100
AcDbArc
 50
180.0
 51
270.0
  0
CIRCLE
  5
42
100
AcDbEntity
  8
025-DWG
100
AcDbCircle
 10
-244.274709
 20
330.6
 30
0.0
 40
2.75
  0
LINE
  5
43
100
AcDbEntity
  8
025-DWG
100
AcDbLine
 10
-224.274709
 20
343.6
 30
0.0
 11
-224.274709
 21
314.9
 31
0.0
  0
ARC
  5
44
100
AcDbEntity
  8
035-DWG
100
AcDbCircle
 10
-224.274709
 20
340.3
 30
0.0
 40
6.0
100
AcDbArc
 50
0.0
 51
33.367013
  0
LINE
  5
45
100
AcDbEntity
  8
035-DWG
100
AcDbLine
 10
-218.274709
 20
340.3
 30
0.0
 11
-218.274709
 21
320.9
 31
0.0
  0
ARC
  5
46
100
AcDbEntity
  8
035-DWG
100
AcDbCircle
 10
-224.274709
 20
320.9
 30
0.0
 40
6.0
100
AcDbArc
 50
270.0
 51
0.0
  0
ARC
  5
47
100
AcDbEntity
  8
035-DWG
100
AcDbCircle
 10
-247.424709
 20
347.4
 30
0.0
 40
3.8
100
AcDbArc
 50
180.0
 51
196.826449
  0
ARC
  5
48
100
AcDbEntity
  8
035-DWG
100
AcDbCircle
 10
-251.224709
 20
377.6
 30
0.0
 40
4.0
100
AcDbArc
 50
90.0
 51
270.0
  0
LINE
  5
49
100
AcDbEntity
  8
035-DWG
100
AcDbLine
 10
-46.924709
 20
373.6
 30
0.0
 11
-46.924709
 21
347.4
 31
0.0
  0
ARC
  5
4A
100
AcDbEntity
  8
035-DWG
100
AcDbCircle
 10
-50.724709
 20
347.4
 30
0.0
 40
3.8
100
AcDbArc
 50
270.0
 51
360.0
  0
ARC
  5
4B
100
AcDbEntity
  8
035-DWG
100
AcDbCircle
 10
-46.924709
 20
377.6
 30
0.0
 40
4.0
100
AcDbArc
 50
270.0
 51
90.0
  0
LINE
  5
4C
100
AcDbEntity
  8
035-DWG
100
AcDbLine
 10
-44.551269
 20
382.2
 30
0.0
 11
-43.574709
 21
382.2
 31
0.0
  0
LINE
  5
4D
100
AcDbEntity
  8
025-DWG
100
AcDbLine
 10
-43.074709
 20
382.7
 30
0.0
 11
-44.053869
 21
382.7
 31
0.0
  0
ELLIPSE
  5
4E
100
AcDbEntity
  8
025-DWG
100
AcDbEllipse
 10
-44.551269
 20
382.7
 30
0.0
 11
0.0000000000000268
 21
0.5
 31
0.0
210
0.0
220
0.0
230
-1.0
 40
0.121869
 41
1.570796326794435
 42
3.141592653589354
  0
ELLIPSE
  5
4F
100
AcDbEntity
  8
025-DWG
100
AcDbEllipse
 10
-44.551269
 20
382.7
 30
0.0
 11
0.000000000024182
 21
0.5
 31
0.0
210
0.0
220
0.0
230
-1.0
 40
0.9948
 41
1.570796326746783
 42
3.141592653541176
  0
LINE
  5
50
100
AcDbEntity
  8
025-DWG
100
AcDbLine
 10
-44.053869
 20
382.7
 30
0.0
 11
-44.490334
 21
382.7
 31
0.0
  0
ARC
  5
51
100
AcDbEntity
  8
035-DWG
100
AcDbCircle
 10
-43.574709
 20
382.7
 30
0.0
 40
0.5
100
AcDbArc
 50
270.0
 51
0.0
  0
LWPOLYLINE
  5
52
100
AcDbEntity
  8
035-DWG
100
AcDbPolyline
 90
       17
 70
     0
 43
0.0
 10
-46.689749
 20
382.2
 10
-46.69488
 20
382.202367
 10
-46.700102
 20
382.209507
 10
-46.705316
 20
382.221475
 10
-46.710428
 20
382.238327
 10
-46.715344
 20
382.260004
 10
-46.719991
 20
382.285982
 10
-46.724297
 20
382.315619
 10
-46.728195
 20
382.348274
 10
-46.731638
 20
382.38337
 10
-46.734786
 20
382.422297
 10
-46.737564
 20
382.464465
 10
-46.739894
 20
382.509283
 10
-46.741715
 20
382.55611
 10
-46.743014
 20
382.604102
 10
-46.743791
 20
382.652364
 10
-46.74405
 20
382.7
  0
LINE
  5
53
100
AcDbEntity
  8
035-DWG
100
AcDbLine
 10
-44.551269
 20
382.2
 30
0.0
 11
-46.689749
 21
382.2
 31
0.0
  0
LINE
  5
54
100
AcDbEntity
  8
025-DWG
100
AcDbLine
 10
-46.74405
 20
382.7
 30
0.0
 11
-44.490334
 21
382.7
 31
0.0
  0
LINE
  5
55
100
AcDbEntity
  8
035-DWG
100
AcDbLine
 10
-45.674709
 20
382.2
 30
0.0
 11
-45.674709
 21
381.6
 31
0.0
  0
LINE
  5
56
100
AcDbEntity
  8
035-DWG
100
AcDbLine
 10
-45.674709
 20
381.6
 30
0.0
 11
-45.674709
 21
382.2
 31
0.0
  0
LINE
  5
57
100
AcDbEntity
  8
035-DWG
100
AcDbLine
 10
-48.774709
 20
874.970653
 30
0.0
 11
-48.774709
 21
793.069091
 31
0.0
  0
LINE
  5
58
100
AcDbEntity
  8
035-DWG
100
AcDbLine
 10
-249.374709
 20
874.970653
 30
0.0
 11
-249.374709
 21
793.069091
 31
0.0
  0
LINE
  5
59
100
AcDbEntity
  8
035-DWG
100
AcDbLine
 10
-253.874709
 20
776.069091
 30
0.0
 11
-44.274709
 21
776.069091
 31
0.0
  0
LINE
  5
5A
100
AcDbEntity
  8
025-DWG
100
AcDbLine
 10
-253.874709
 20
786.069091
 30
0.0
 11
-149.074709
 21
786.069091
 31
0.0
  0
LINE
  5
5B
100
AcDbEntity
  8
035-DWG
100
AcDbLine
 10
-149.074709
 20
789.569091
 30
0.0
 11
-250.374709
 21
789.569091
 31
0.0
  0
LINE
  5
5C
100
AcDbEntity
  8
035-DWG
100
AcDbLine
 10
-247.374709
 20
791.069091
 30
0.0
 11
-149.074709
 21
791.069091
 31
0.0
  0
LINE
  5
5D
100
AcDbEntity
  8
035-DWG
100
AcDbLine
 10
-454.324709
 20
803.25
 30
0.0
 11
-454.324709
 21
759.75
 31
0.0
  0
LINE
  5
5E
100
AcDbEntity
  8
035-DWG
100
AcDbLine
 10
-523.574709
 20
803.25
 30
0.0
 11
-523.574709
 21
765.8
 31
0.0
  0
LINE
  5
5F
100
AcDbEntity
  8
035-DWG
100
AcDbLine
 10
-523.574709
 20
765.8
 30
0.0
 11
-454.324709
 21
765.8
 31
0.0
  0
LINE
  5
60
100
AcDbEntity
  8
035-DWG
100
AcDbLine
 10
-454.324709
 20
759.75
 30
0.0
 11
-453.074709
 21
759.75
 31
0.0
  0
LINE
  5
61
100
AcDbEntity
  8
035-DWG
100
AcDbLine
 10
-523.574709
 20
803.25
 30
0.0
 11
-453.074709
 21
803.25
 31
0.0
  0
ARC
  5
62
100
AcDbEntity
  8
035-DWG
100
AcDbCircle
 10
-250.374709
 20
786.069091
 30
0.0
 40
3.5
100
AcDbArc
 50
90.0
 51
180.0
  0
LINE
  5
63
100
AcDbEntity
  8
035-DWG
100
AcDbLine
 10
-253.874709
 20
786.069091
 30
0.0
 11
-253.874709
 21
776.069091
 31
0.0
  0
ARC
  5
64
100
AcDbEntity
  8
035-DWG
100
AcDbCircle
 10
-247.374709
 20
793.069091
 30
0.0
 40
2.0
100
AcDbArc
 50
180.0
 51
270.0
  0
ARC
  5
65
100
AcDbEntity
  8
035-DWG
100
AcDbCircle
 10
-242.924709
 20
792.369091
 30
0.0
 40
2.8
100
AcDbArc
 50
207.664004
 51
332.335996
  0
POINT
  5
66
100
AcDbEntity
  8
DEFPOINTS
  6
BYBLOCK
 62
     0
100
AcDbPoint
 10
-250.374709
 20
789.569091
 30
0.0
  0
LINE
  5
68
100
AcDbEntity
  8
VHH-025
100
AcDbLine
 10
13.045026
 20
538.2
 30
0.0
 11
13.110593
 21
545.75
 31
0.0
  0
LINE
  5
6A
100
AcDbEntity
  8
VHH-025
100
AcDbLine
 10
13.045026
 20
538.2
 30
0.0
 11
13.297393
 21
546.3
 31
0.0
  0
LINE
  5
6B
100
AcDbEntity
  8
VHH-025
100
AcDbLine
 10
15.010117
 20
538.2
 30
0.0
 11
15.043161
 21
545.75
 31
0.0
  0
LINE
  5
6C
100
AcDbEntity
  8
VHH-025
100
AcDbLine
 10
20.005557
 20
538.2
 30
0.0
 11
19.939989
 21
545.75
 31
0.0
  0
LINE
  5
6D
100
AcDbEntity
  8
VHH-025
100
AcDbLine
 10
20.005557
 20
538.2
 30
0.0
 11
19.75319
 21
546.3
 31
0.0
  0
LINE
  5
6E
100
AcDbEntity
  8
VHH-025
100
AcDbLine
 10
18.040466
 20
538.2
 30
0.0
 11
18.007421
 21
545.75
 31
0.0
  0
LINE
  5
6F
100
AcDbEntity
  8
VHH-025
100
AcDbLine
 10
22.389574
 20
538.2
 30
0.0
 11
22.292517
 21
545.75
 31
0.0
  0
LINE
  5
70
100
AcDbEntity
  8
VHH-025
100
AcDbLine
 10
24.199704
 20
538.2
 30
0.0
 11
23.710827
 21
546.3
 31
0.0
  0
LINE
  5
71
100
AcDbEntity
  8
VHH-025
100
AcDbLine
 10
32.173283
 20
538.2
 30
0.0
 11
31.914301
 21
545.75
 31
0.0
  0
LINE
  5
72
100
AcDbEntity
  8
VHH-025
100
AcDbLine
 10
31.675772
 20
538.2
 30
0.0
 11
30.701137
 21
546.3
 31
0.0
  0
LINE
  5
73
100
AcDbEntity
  8
VHH-025
100
AcDbLine
 10
31.675772
 20
538.2
 30
0.0
 11
31.425025
 21
545.75
 31
0.0
  0
LINE
  5
74
100
AcDbEntity
  8
VHH-025
100
AcDbLine
 10
30.93933
 20
538.2
 30
0.0
 11
30.70077
 21
545.75
 31
0.0
  0
LINE
  5
75
100
AcDbEntity
  8
VHH-035
100
AcDbLine
 10
32.525291
 20
536.2
 30
0.0
 11
32.190884
 21
545.776175
 31
0.0
  0
LINE
  5
77
100
AcDbEntity
  8
VHH-025
100
AcDbLine
 10
32.424015
 20
538.2
 30
0.0
 11
32.160884
 21
545.75
 31
0.0
  0
LINE
  5
78
100
AcDbEntity
  8
VHH-025
100
AcDbLine
 10
24.199704
 20
538.2
 30
0.0
 11
24.072688
 21
545.75
 31
0.0
  0
LINE
  5
79
100
AcDbEntity
  8
VHH-025
100
AcDbLine
 10
29.975569
 20
538.2
 30
0.0
 11
29.118757
 21
546.3
 31
0.0
  0
LINE
  5
7A
100
AcDbEntity
  8
VHH-025
100
AcDbLine
 10
29.975569
 20
538.2
 30
0.0
 11
29.75296
 21
545.75
 31
0.0
  0
LINE
  5
7B
100
AcDbEntity
  8
VHH-025
100
AcDbLine
 10
28.799689
 20
538.2
 30
0.0
 11
28.596542
 21
545.75
 31
0.0
  0
LINE
  5
7C
100
AcDbEntity
  8
VHH-025
100
AcDbLine
 10
27.430235
 20
538.2
 30
0.0
 11
26.735566
 21
546.3
 31
0.0
  0
LINE
  5
7D
100
AcDbEntity
  8
VHH-025
100
AcDbLine
 10
25.888804
 20
538.2
 30
0.0
 11
25.733833
 21
545.75
 31
0.0
  0
LINE
  5
7E
100
AcDbEntity
  8
VHH-025
100
AcDbLine
 10
27.430235
 20
538.2
 30
0.0
 11
27.249753
 21
545.75
 31
0.0
  0
LINE
  5
7F
100
AcDbEntity
  8
VHH-025
100
AcDbLine
 10
32.424015
 20
538.2
 30
0.0
 11
32.07671
 21
541.015347
 31
0.0
  0
LINE
  5
80
100
AcDbEntity
  8
035-DWG
100
AcDbLine
 10
-47.638893
 20
557.813668
 30
0.0
 11
-47.638893
 21
514.457484
 31
0.0
  0
LINE
  5
81
100
AcDbEntity
  8
VHH-025
100
AcDbLine
 10
1.37481
 20
538.2
 30
0.0
 11
1.625558
 21
545.75
 31
0.0
  0
LINE
  5
82
100
AcDbEntity
  8
VHH-035
100
AcDbLine
 10
10.725291
 20
528.884192
 30
0.0
 11
-47.638893
 21
540.034715
 31
0.0
  0
LINE
  5
83
100
AcDbEntity
  8
VHH-025
100
AcDbLine
 10
1.37481
 20
538.2
 30
0.0
 11
2.349445
 21
546.3
 31
0.0
  0
LINE
  5
84
100
AcDbEntity
  8
VHH-035
100
AcDbLine
 10
0.525291
 20
536.0
 30
0.0
 11
-27.274709
 21
543.942857
 31
0.0
  0
LINE
  5
85
100
AcDbEntity
  8
VHH-035
100
AcDbLine
 10
0.525291
 20
536.0
 30
0.0
 11
-27.274709
 21
543.942857
 31
0.0
  0
LINE
  5
86
100
AcDbEntity
  8
VHH-025
100
AcDbLine
 10
0.8773
 20
538.2
 30
0.0
 11
1.136282
 21
545.75
 31
0.0
  0
LINE
  5
87
100
AcDbEntity
  8
VHH-035
100
AcDbLine
 10
0.859699
 20
545.776175
 30
0.0
 11
0.525291
 21
536.2
 31
0.0
  0
LINE
  5
88
100
AcDbEntity
  8
VHH-025
100
AcDbLine
 10
0.626567
 20
538.2
 30
0.0
 11
0.889699
 21
545.75
 31
0.0
  0
LINE
  5
89
100
AcDbEntity
  8
VHH-025
100
AcDbLine
 10
0.626567
 20
538.2
 30
0.0
 11
0.973872
 21
541.015347
 31
0.0
  0
LINE
  5
8A
100
AcDbEntity
  8
VHH-025
100
AcDbLine
 10
8.850879
 20
538.2
 30
0.0
 11
8.977894
 21
545.75
 31
0.0
  0
LINE
  5
8B
100
AcDbEntity
  8
VHH-025
100
AcDbLine
 10
10.661009
 20
538.2
 30
0.0
 11
10.758066
 21
545.75
 31
0.0
  0
LINE
  5
8C
100
AcDbEntity
  8
VHH-025
100
AcDbLine
 10
8.850879
 20
538.2
 30
0.0
 11
9.339756
 21
546.3
 31
0.0
  0
LINE
  5
8D
100
AcDbEntity
  8
VHH-025
100
AcDbLine
 10
5.620347
 20
538.2
 30
0.0
 11
5.80083
 21
545.75
 31
0.0
  0
LINE
  5
8E
100
AcDbEntity
  8
VHH-025
100
AcDbLine
 10
7.161779
 20
538.2
 30
0.0
 11
7.31675
 21
545.75
 31
0.0
  0
LINE
  5
8F
100
AcDbEntity
  8
VHH-025
100
AcDbLine
 10
5.620347
 20
538.2
 30
0.0
 11
6.315016
 21
546.3
 31
0.0
  0
LINE
  5
90
100
AcDbEntity
  8
VHH-025
100
AcDbLine
 10
4.250893
 20
538.2
 30
0.0
 11
4.45404
 21
545.75
 31
0.0
  0
LINE
  5
91
100
AcDbEntity
  8
VHH-025
100
AcDbLine
 10
3.075014
 20
538.2
 30
0.0
 11
3.297622
 21
545.75
 31
0.0
  0
LINE
  5
92
100
AcDbEntity
  8
VHH-025
100
AcDbLine
 10
3.075014
 20
538.2
 30
0.0
 11
3.931826
 21
546.3
 31
0.0
  0
LINE
  5
93
100
AcDbEntity
  8
VHH-025
100
AcDbLine
 10
2.111253
 20
538.2
 30
0.0
 11
2.349812
 21
545.75
 31
0.0
  0
LINE
  5
94
100
AcDbEntity
  8
VHH-035
100
AcDbLine
 10
0.525291
 20
536.2
 30
0.0
 11
32.525291
 21
536.2
 31
0.0
  0
LINE
  5
95
100
AcDbEntity
  8
VHH-035
100
AcDbLine
 10
0.525291
 20
536.0
 30
0.0
 11
32.525291
 21
536.0
 31
0.0
  0
LINE
  5
96
100
AcDbEntity
  8
VHH-035
100
AcDbLine
 10
24.525291
 20
496.0
 30
0.0
 11
8.525291
 21
496.0
 31
0.0
  0
LINE
  5
97
100
AcDbEntity
  8
VHH-035
100
AcDbLine
 10
23.525291
 20
490.0
 30
0.0
 11
9.525291
 21
490.0
 31
0.0
  0
LINE
  5
98
100
AcDbEntity
  8
VHH-035
100
AcDbLine
 10
24.525291
 20
493.0
 30
0.0
 11
8.525291
 21
493.0
 31
0.0
  0
LINE
  5
99
100
AcDbEntity
  8
VHH-035
100
AcDbLine
 10
32.397701
 20
510.0
 30
0.0
 11
1.723937
 21
510.0
 31
0.0
  0
LINE
  5
9A
100
AcDbEntity
  8
VHH-025
100
AcDbLine
 10
22.389574
 20
538.2
 30
0.0
 11
24.199704
 21
538.2
 31
0.0
  0
LINE
  5
9B
100
AcDbEntity
  8
VHH-035
100
AcDbLine
 10
8.525291
 20
491.0
 30
0.0
 11
8.525291
 21
493.0
 31
0.0
  0
ARC
  5
9C
100
AcDbEntity
  8
VHH-035
100
AcDbCircle
 10
9.525291
 20
491.0
 30
0.0
 40
1.0
100
AcDbArc
 50
180.0
 51
270.0
  0
LINE
  5
9D
100
AcDbEntity
  8
VHH-035
100
AcDbLine
 10
-43.172306
 20
514.0
 30
0.0
 11
10.725291
 21
514.0
 31
0.0
  0
LINE
  5
9E
100
AcDbEntity
  8
035-DWG
100
AcDbLine
 10
-47.638893
 20
514.457484
 30
0.0
 11
-46.74405
 21
514.457484
 31
0.0
  0
LWPOLYLINE
  5
9F
100
AcDbEntity
  8
025-DWG
100
AcDbPolyline
 90
        3
 70
     0
 43
0.0
 10
-43.075286
 20
511.647552
 10
-41.08016
 20
511.575682
 10
-39.074709
 20
511.503812
  0
LWPOLYLINE
  5
A0
100
AcDbEntity
  8
035-DWG
100
AcDbPolyline
 90
        3
 70
     0
 43
0.0
 10
-39.074709
 20
512.429874
 10
-41.083594
 20
512.520671
 10
-43.082363
 20
512.611342
  0
LINE
  5
A1
100
AcDbEntity
  8
035-DWG
100
AcDbLine
 10
-39.074709
 20
511.0
 30
0.0
 11
-43.074709
 21
510.860317
 31
0.0
  0
LWPOLYLINE
  5
A2
100
AcDbEntity
  8
035-DWG
100
AcDbPolyline
 90
       41
 70
     0
 43
0.0
 10
-43.074709
 20
512.5
 10
-43.074965
 20
512.503679
 10
-43.075735
 20
512.514782
 10
-43.077021
 20
512.533405
 10
-43.078828
 20
512.559644
 10
-43.081157
 20
512.593597
 10
-43.084012
 20
512.635361
 10
-43.087395
 20
512.685031
 10
-43.091309
 20
512.742705
 10
-43.095754
 20
512.80845
 10
-43.100716
 20
512.882223
 10
-43.106179
 20
512.963962
 10
-43.112128
 20
513.0536
 10
-43.118545
 20
513.151074
 10
-43.125417
 20
513.256319
 10
-43.132726
 20
513.369271
 10
-43.140457
 20
513.489865
 10
-43.148592
 20
513.618038
 10
-43.157104
 20
513.753636
 10
-43.165963
 20
513.89646
 10
-43.175142
 20
514.046306
 10
-43.184612
 20
514.202975
 10
-43.194343
 20
514.366264
 10
-43.204308
 20
514.535973
 10
-43.214476
 20
514.711901
 10
-43.224817
 20
514.893826
 10
-43.235295
 20
515.081437
 10
-43.245879
 20
515.274396
 10
-43.256534
 20
515.472366
 10
-43.267228
 20
515.67501
 10
-43.277929
 20
515.88199
 10
-43.288603
 20
516.09297
 10
-43.299219
 20
516.307612
 10
-43.308591
 20
516.501422
 10
-43.318014
 20
516.700568
 10
-43.327464
 20
516.904915
 10
-43.336919
 20
517.114329
 10
-43.346356
 20
517.328679
 10
-43.355753
 20
517.547829
 10
-43.365088
 20
517.771647
 10
-43.374336
 20
518.0
  0
LINE
  5
A3
100
AcDbEntity
  8
035-DWG
100
AcDbLine
 10
-43.075286
 20
511.647552
 30
0.0
 11
-43.075286
 21
510.867728
 31
0.0
  0
LWPOLYLINE
  5
A4
100
AcDbEntity
  8
035-DWG
100
AcDbPolyline
 90
        3
 70
     0
 43
0.0
 10
-43.075288
 20
510.867727
 10
-43.074992
 20
510.863952
 10
-43.074709
 20
510.860317
  0
LINE
  5
A5
100
AcDbEntity
  8
035-DWG
100
AcDbLine
 10
-43.074709
 20
512.5
 30
0.0
 11
-43.074709
 21
511.647531
 31
0.0
  0
LINE
  5
A6
100
AcDbEntity
  8
035-DWG
100
AcDbLine
 10
-43.374336
 20
518.0
 30
0.0
 11
-44.053869
 21
518.0
 31
0.0
  0
LINE
  5
A7
100
AcDbEntity
  8
035-DWG
100
AcDbLine
 10
-44.053869
 20
518.0
 30
0.0
 11
-44.490334
 21
518.0
 31
0.0
  0
LINE
  5
A8
100
AcDbEntity
  8
035-DWG
100
AcDbLine
 10
-46.74405
 20
518.0
 30
0.0
 11
-44.490334
 21
518.0
 31
0.0
  0
LINE
  5
A9
100
AcDbEntity
  8
035-DWG
100
AcDbLine
 10
-39.074709
 20
511.503812
 30
0.0
 11
-39.074709
 21
512.429874
 31
0.0
  0
LINE
  5
AA
100
AcDbEntity
  8
035-DWG
100
AcDbLine
 10
-39.074709
 20
511.003681
 30
0.0
 11
-39.074709
 21
511.503812
 31
0.0
  0
LINE
  5
AB
100
AcDbEntity
  8
035-DWG
100
AcDbLine
 10
-39.074709
 20
511.003681
 30
0.0
 11
-39.074709
 21
511.0
 31
0.0
  0
LINE
  5
AC
100
AcDbEntity
  8
VHH-025
100
AcDbLine
 10
15.010117
 20
538.2
 30
0.0
 11
13.045026
 21
538.2
 31
0.0
  0
LINE
  5
AD
100
AcDbEntity
  8
VHH-025
100
AcDbLine
 10
18.040466
 20
538.2
 30
0.0
 11
20.005557
 21
538.2
 31
0.0
  0
ARC
  5
AE
100
AcDbEntity
  8
VHH-035
100
AcDbCircle
 10
20.241205
 20
554.19737
 30
0.0
 40
26.830235
100
AcDbArc
 50
222.706354
 51
249.226702
  0
ARC
  5
AF
100
AcDbEntity
  8
VHH-035
100
AcDbCircle
 10
1.723937
 20
511.0
 30
0.0
 40
1.0
100
AcDbArc
 50
190.0
 51
270.0
  0
LINE
  5
B0
100
AcDbEntity
  8
VHH-025
100
AcDbLine
 10
2.111253
 20
538.2
 30
0.0
 11
1.37481
 21
538.2
 31
0.0
  0
LINE
  5
B1
100
AcDbEntity
  8
VHH-035
100
AcDbLine
 10
0.73913
 20
510.826352
 30
0.0
 11
0.17953
 21
514.0
 31
0.0
  0
LINE
  5
B2
100
AcDbEntity
  8
VHH-025
100
AcDbLine
 10
0.8773
 20
538.2
 30
0.0
 11
0.595133
 21
538.2
 31
0.0
  0
LINE
  5
B3
100
AcDbEntity
  8
VHH-035
100
AcDbLine
 10
0.522854
 20
535.930201
 30
0.0
 11
0.525291
 21
536.0
 31
0.0
  0
LINE
  5
B4
100
AcDbEntity
  8
VHH-035
100
AcDbLine
 10
8.525291
 20
496.0
 30
0.0
 11
8.525291
 21
508.0
 31
0.0
  0
ARC
  5
B5
100
AcDbEntity
  8
VHH-035
100
AcDbCircle
 10
6.525291
 20
494.5
 30
0.0
 40
2.5
100
AcDbArc
 50
323.130102
 51
36.869898
  0
LINE
  5
B6
100
AcDbEntity
  8
VHH-035
100
AcDbLine
 10
10.725291
 20
514.0
 30
0.0
 11
10.725291
 21
529.11134
 31
0.0
  0
LINE
  5
B7
100
AcDbEntity
  8
VHH-035
100
AcDbLine
 10
6.379583
 20
510.826352
 30
0.0
 11
5.819983
 21
514.0
 31
0.0
  0
ARC
  5
B8
100
AcDbEntity
  8
VHH-035
100
AcDbCircle
 10
7.364391
 20
511.0
 30
0.0
 40
1.0
100
AcDbArc
 50
190.0
 51
270.0
  0
ARC
  5
B9
100
AcDbEntity
  8
VHH-035
100
AcDbCircle
 10
6.525291
 20
508.0
 30
0.0
 40
2.0
100
AcDbArc
 50
0.0
 51
90.0
  0
LINE
  5
BA
100
AcDbEntity
  8
VHH-025
100
AcDbLine
 10
4.250893
 20
538.2
 30
0.0
 11
3.075014
 21
538.2
 31
0.0
  0
LINE
  5
BB
100
AcDbEntity
  8
VHH-025
100
AcDbLine
 10
7.161779
 20
538.2
 30
0.0
 11
5.620347
 21
538.2
 31
0.0
  0
LINE
  5
BC
100
AcDbEntity
  8
VHH-025
100
AcDbLine
 10
10.661009
 20
538.2
 30
0.0
 11
8.850879
 21
538.2
 31
0.0
  0
LINE
  5
BD
100
AcDbEntity
  8
VHH-035
100
AcDbLine
 10
24.525291
 20
491.0
 30
0.0
 11
24.525291
 21
493.0
 31
0.0
  0
ARC
  5
BE
100
AcDbEntity
  8
VHH-035
100
AcDbCircle
 10
23.525291
 20
491.0
 30
0.0
 40
1.0
100
AcDbArc
 50
270.0
 51
0.0
  0
LINE
  5
BF
100
AcDbEntity
  8
VHH-035
100
AcDbLine
 10
33.397092
 20
511.034899
 30
0.0
 11
32.525291
 21
536.0
 31
0.0
  0
LINE
  5
C0
100
AcDbEntity
  8
VHH-035
100
AcDbLine
 10
24.525291
 20
496.0
 30
0.0
 11
24.525291
 21
508.0
 31
0.0
  0
ARC
  5
C1
100
AcDbEntity
  8
VHH-035
100
AcDbCircle
 10
26.525291
 20
494.5
 30
0.0
 40
2.5
100
AcDbArc
 50
143.130102
 51
216.869898
  0
ARC
  5
C2
100
AcDbEntity
  8
VHH-035
100
AcDbCircle
 10
32.397701
 20
511.0
 30
0.0
 40
1.0
100
AcDbArc
 50
270.0
 51
2.0
  0
ARC
  5
C3
100
AcDbEntity
  8
VHH-035
100
AcDbCircle
 10
26.525291
 20
508.0
 30
0.0
 40
2.0
100
AcDbArc
 50
90.0
 51
180.0
  0
LINE
  5
C4
100
AcDbEntity
  8
VHH-025
100
AcDbLine
 10
32.173283
 20
538.2
 30
0.0
 11
32.45545
 21
538.2
 31
0.0
  0
LINE
  5
C5
100
AcDbEntity
  8
VHH-025
100
AcDbLine
 10
30.93933
 20
538.2
 30
0.0
 11
31.675772
 21
538.2
 31
0.0
  0
LINE
  5
C6
100
AcDbEntity
  8
VHH-025
100
AcDbLine
 10
25.888804
 20
538.2
 30
0.0
 11
27.430235
 21
538.2
 31
0.0
  0
LINE
  5
C7
100
AcDbEntity
  8
VHH-025
100
AcDbLine
 10
28.799689
 20
538.2
 30
0.0
 11
29.975569
 21
538.2
 31
0.0
  0
LINE
  5
C8
100
AcDbEntity
  8
VHH-035
100
AcDbLine
 10
31.441341
 20
546.5
 30
0.0
 11
1.609242
 21
546.5
 31
0.0
  0
ARC
  5
C9
100
AcDbEntity
  8
VHH-035
100
AcDbCircle
 10
52.711887
 20
525.832821
 30
0.0
 40
53.758367
100
AcDbArc
 50
115.720623
 51
134.497865
  0
ARC
  5
CA
100
AcDbEntity
  8
VHH-035
100
AcDbCircle
 10
52.711887
 20
525.832821
 30
0.0
 40
50.670673
100
AcDbArc
 50
115.720623
 51
126.175476
  0
LINE
  5
CB
100
AcDbEntity
  8
VHH-035
100
AcDbLine
 10
22.891141
 20
553.480827
 30
0.0
 11
18.611704
 21
553.930614
 31
0.0
  0
ARC
  5
CC
100
AcDbEntity
  8
VHH-035
100
AcDbCircle
 10
52.711887
 20
525.832821
 30
0.0
 40
50.670673
100
AcDbArc
 50
126.175476
 51
136.549309
  0
ARC
  5
CD
100
AcDbEntity
  8
VHH-035
100
AcDbCircle
 10
27.961631
 20
565.698272
 30
0.0
 40
5.0
100
AcDbArc
 50
165.277858
 51
217.324284
  0
ARC
  5
CE
100
AcDbEntity
  8
VHH-035
100
AcDbCircle
 10
22.525291
 20
550.0
 30
0.0
 40
3.5
100
AcDbArc
 50
270.0
 51
336.978578
  0
ARC
  5
CF
100
AcDbEntity
  8
VHH-035
100
AcDbCircle
 10
51.409723
 20
518.369425
 30
0.0
 40
62.5
100
AcDbArc
 50
108.113958
 51
125.566996
  0
LINE
  5
D0
100
AcDbEntity
  8
VHH-035
100
AcDbLine
 10
-37.504579
 20
540.160356
 30
0.0
 11
-47.638893
 21
542.026281
 31
0.0
  0
ARC
  5
D1
100
AcDbEntity
  8
VHH-035
100
AcDbCircle
 10
-46.33052
 20
561.15387
 30
0.0
 40
22.773337
100
AcDbArc
 50
292.802506
 51
312.864037
  0
ARC
  5
D2
100
AcDbEntity
  8
VHH-035
100
AcDbCircle
 10
-27.751493
 20
553.168034
 30
0.0
 40
9.23749
100
AcDbArc
 50
250.475796
 51
272.958583
  0
ARC
  5
D3
100
AcDbEntity
  8
VHH-035
100
AcDbCircle
 10
29.682986
 20
548.934543
 30
0.0
 40
25.0
100
AcDbArc
 50
125.807709
 51
155.0
  0
LINE
  5
D4
100
AcDbEntity
  8
VHH-035
100
AcDbLine
 10
9.025291
 20
546.5
 30
0.0
 11
22.525291
 21
546.5
 31
0.0
  0
ARC
  5
D5
100
AcDbEntity
  8
VHH-035
100
AcDbCircle
 10
19.238875
 20
559.897745
 30
0.0
 40
6.0
100
AcDbArc
 50
134.497865
 51
264.0
  0
ARC
  5
D6
100
AcDbEntity
  8
VHH-025
100
AcDbCircle
 10
21.350575
 20
545.820569
 30
0.0
 40
0.944582
100
AcDbArc
 50
355.715503
 51
45.996151
  0
ARC
  5
D7
100
AcDbEntity
  8
VHH-035
100
AcDbCircle
 10
18.830542
 20
557.929646
 30
0.0
 40
4.0
100
AcDbArc
 50
136.549309
 51
264.0
  0
ARC
  5
D8
100
AcDbEntity
  8
VHH-025
100
AcDbCircle
 10
16.928822
 20
545.88672
 30
0.0
 40
1.890611
100
AcDbArc
 50
161.071874
 51
184.146986
  0
ARC
  5
D9
100
AcDbEntity
  8
VHH-025
100
AcDbCircle
 10
16.121761
 20
545.88672
 30
0.0
 40
1.890611
100
AcDbArc
 50
355.853014
 51
18.928126
  0
ARC
  5
DA
100
AcDbEntity
  8
VHH-025
100
AcDbCircle
 10
18.585706
 20
545.801283
 30
0.0
 40
1.355254
100
AcDbArc
 50
357.831411
 51
31.035013
  0
ARC
  5
DB
100
AcDbEntity
  8
VHH-025
100
AcDbCircle
 10
19.332033
 20
546.289972
 30
0.0
 40
0.421276
100
AcDbArc
 50
1.363952
 51
29.904209
  0
ARC
  5
DC
100
AcDbEntity
  8
VHH-025
100
AcDbCircle
 10
13.718549
 20
546.289972
 30
0.0
 40
0.421276
100
AcDbArc
 50
150.095791
 51
178.636048
  0
ARC
  5
DD
100
AcDbEntity
  8
VHH-025
100
AcDbCircle
 10
14.464877
 20
545.801283
 30
0.0
 40
1.355254
100
AcDbArc
 50
148.964987
 51
182.168589
  0
ARC
  5
DE
100
AcDbEntity
  8
VHH-025
100
AcDbCircle
 10
2.423479
 20
545.702213
 30
0.0
 40
0.799351
100
AcDbArc
 50
93.584
 51
176.572659
  0
ARC
  5
DF
100
AcDbEntity
  8
VHH-025
100
AcDbCircle
 10
1.968755
 20
545.666262
 30
0.0
 40
0.836674
100
AcDbArc
 50
94.801375
 51
174.255958
  0
ARC
  5
E0
100
AcDbEntity
  8
VHH-025
100
AcDbCircle
 10
1.657133
 20
545.732393
 30
0.0
 40
0.767636
100
AcDbArc
 50
89.502437
 51
178.68571
  0
ARC
  5
E1
100
AcDbEntity
  8
VHH-035
100
AcDbCircle
 10
1.609242
 20
545.75
 30
0.0
 40
0.75
100
AcDbArc
 50
90.0
 51
178.0
  0
ARC
  5
E2
100
AcDbEntity
  8
VHH-025
100
AcDbCircle
 10
4.0575
 20
545.74734
 30
0.0
 40
0.759883
100
AcDbArc
 50
97.905868
 51
179.799397
  0
LINE
  5
E3
100
AcDbEntity
  8
VHH-035
100
AcDbLine
 10
7.025291
 20
559.5
 30
0.0
 11
7.025291
 21
556.5
 31
0.0
  0
LINE
  5
E4
100
AcDbEntity
  8
VHH-035
100
AcDbLine
 10
7.025291
 20
556.5
 30
0.0
 11
7.025291
 21
559.5
 31
0.0
  0
LINE
  5
E5
100
AcDbEntity
  8
VHH-035
100
AcDbLine
 10
7.025291
 20
559.5
 30
0.0
 11
7.025291
 21
556.5
 31
0.0
  0
LINE
  5
E6
100
AcDbEntity
  8
VHH-035
100
AcDbLine
 10
7.025291
 20
559.5
 30
0.0
 11
7.025291
 21
548.5
 31
0.0
  0
ARC
  5
E7
100
AcDbEntity
  8
VHH-025
100
AcDbCircle
 10
6.578228
 20
545.762464
 30
0.0
 40
0.777499
100
AcDbArc
 50
108.449943
 51
180.918575
  0
ARC
  5
E8
100
AcDbEntity
  8
VHH-025
100
AcDbCircle
 10
5.276844
 20
545.707334
 30
0.0
 40
0.823909
100
AcDbArc
 50
105.829218
 51
177.031654
  0
ARC
  5
E9
100
AcDbEntity
  8
VHH-025
100
AcDbCircle
 10
6.494458
 20
546.321112
 30
0.0
 40
0.180679
100
AcDbArc
 50
98.074916
 51
186.710338
  0
ARC
  5
EA
100
AcDbEntity
  8
VHH-025
100
AcDbCircle
 10
4.174321
 20
546.259874
 30
0.0
 40
0.245793
100
AcDbArc
 50
102.326831
 51
170.604314
  0
ARC
  5
EB
100
AcDbEntity
  8
VHH-025
100
AcDbCircle
 10
9.972006
 20
545.722576
 30
0.0
 40
0.99449
100
AcDbArc
 50
128.580625
 51
178.419809
  0
ARC
  5
EC
100
AcDbEntity
  8
VHH-025
100
AcDbCircle
 10
11.700008
 20
545.820569
 30
0.0
 40
0.944582
100
AcDbArc
 50
134.003849
 51
184.284497
  0
ARC
  5
ED
100
AcDbEntity
  8
VHH-025
100
AcDbCircle
 10
9.676794
 20
546.246677
 30
0.0
 40
0.34123
100
AcDbArc
 50
132.065275
 51
171.0097
  0
ARC
  5
EE
100
AcDbEntity
  8
VHH-025
100
AcDbCircle
 10
8.12075
 20
545.774683
 30
0.0
 40
0.804379
100
AcDbArc
 50
115.616291
 51
181.758476
  0
ARC
  5
EF
100
AcDbEntity
  8
VHH-035
100
AcDbCircle
 10
9.025291
 20
548.5
 30
0.0
 40
2.0
100
AcDbArc
 50
180.0
 51
270.0
  0
ARC
  5
F0
100
AcDbEntity
  8
VHH-025
100
AcDbCircle
 10
3.20043
 20
545.657295
 30
0.0
 40
0.855654
100
AcDbArc
 50
99.980708
 51
173.780152
  0
ARC
  5
F1
100
AcDbEntity
  8
VHH-025
100
AcDbCircle
 10
2.562624
 20
546.286574
 30
0.0
 40
0.213601
100
AcDbArc
 50
92.321809
 51
176.396337
  0
ARC
  5
F2
100
AcDbEntity
  8
VHH-035
100
AcDbCircle
 10
9.313548
 20
615.924908
 30
0.0
 40
46.241633
100
AcDbArc
 50
310.187569
 51
329.136447
  0
ARC
  5
F3
100
AcDbEntity
  8
VHH-035
100
AcDbCircle
 10
9.313548
 20
615.924908
 30
0.0
 40
49.329327
100
AcDbArc
 50
303.410632
 51
328.85969
  0
ARC
  5
F4
100
AcDbEntity
  8
VHH-035
100
AcDbCircle
 10
37.198296
 20
602.554382
 30
0.0
 40
24.0
100
AcDbArc
 50
307.665933
 51
341.159855
  0
ARC
  5
F5
100
AcDbEntity
  8
VHH-035
100
AcDbCircle
 10
14.285364
 20
632.240196
 30
0.0
 40
61.5
100
AcDbArc
 50
291.642131
 51
307.663948
  0
ARC
  5
F6
100
AcDbEntity
  8
VHH-025
100
AcDbCircle
 10
23.373789
 20
546.246677
 30
0.0
 40
0.34123
100
AcDbArc
 50
8.9903
 51
47.934725
  0
ARC
  5
F7
100
AcDbEntity
  8
VHH-025
100
AcDbCircle
 10
29.850153
 20
545.657295
 30
0.0
 40
0.855654
100
AcDbArc
 50
6.219848
 51
80.019292
  0
ARC
  5
F8
100
AcDbEntity
  8
VHH-025
100
AcDbCircle
 10
30.627104
 20
545.702213
 30
0.0
 40
0.799351
100
AcDbArc
 50
3.427341
 51
86.416
  0
ARC
  5
F9
100
AcDbEntity
  8
VHH-035
100
AcDbCircle
 10
31.441341
 20
545.75
 30
0.0
 40
0.75
100
AcDbArc
 50
2.0
 51
90.0
  0
ARC
  5
FA
100
AcDbEntity
  8
VHH-025
100
AcDbCircle
 10
30.487959
 20
546.286574
 30
0.0
 40
0.213601
100
AcDbArc
 50
3.603663
 51
87.678191
  0
ARC
  5
FB
100
AcDbEntity
  8
VHH-025
100
AcDbCircle
 10
31.39345
 20
545.732393
 30
0.0
 40
0.767636
100
AcDbArc
 50
1.31429
 51
90.497563
  0
ARC
  5
FC
100
AcDbEntity
  8
VHH-025
100
AcDbCircle
 10
31.081828
 20
545.666262
 30
0.0
 40
0.836674
100
AcDbArc
 50
5.744042
 51
85.198625
  0
ARC
  5
FD
100
AcDbEntity
  8
VHH-025
100
AcDbCircle
 10
28.993082
 20
545.74734
 30
0.0
 40
0.759883
100
AcDbArc
 50
0.200603
 51
82.094132
  0
ARC
  5
FE
100
AcDbEntity
  8
VHH-025
100
AcDbCircle
 10
27.773739
 20
545.707334
 30
0.0
 40
0.823909
100
AcDbArc
 50
2.968346
 51
74.170782
  0
ARC
  5
FF
100
AcDbEntity
  8
VHH-025
100
AcDbCircle
 10
24.929832
 20
545.774683
 30
0.0
 40
0.804379
100
AcDbArc
 50
358.241524
 51
64.383709
  0
ARC
  5
100
100
AcDbEntity
  8
VHH-025
100
AcDbCircle
 10
26.472354
 20
545.762464
 30
0.0
 40
0.777499
100
AcDbArc
 50
359.081425
 51
71.550057
  0
ARC
  5
101
100
AcDbEntity
  8
VHH-025
100
AcDbCircle
 10
28.876262
 20
546.259874
 30
0.0
 40
0.245793
100
AcDbArc
 50
9.395686
 51
77.673169
  0
ARC
  5
102
100
AcDbEntity
  8
VHH-025
100
AcDbCircle
 10
26.556125
 20
546.321112
 30
0.0
 40
0.180679
100
AcDbArc
 50
353.289662
 51
81.925084
  0
ARC
  5
103
100
AcDbEntity
  8
VHH-025
100
AcDbCircle
 10
23.078577
 20
545.722576
 30
0.0
 40
0.99449
100
AcDbArc
 50
1.580191
 51
51.419375
  0
ARC
  5
104
100
AcDbEntity
  8
VHH-035
100
AcDbCircle
 10
12.795273
 20
554.134442
 30
0.0
 40
14.071985
100
AcDbArc
 50
336.978578
 51
37.324284
  0
ARC
  5
105
100
AcDbEntity
  8
VHH-035
100
AcDbCircle
 10
22.525291
 20
550.0
 30
0.0
 40
3.5
100
AcDbArc
 50
336.978578
 51
84.0
  0
ARC
  5
106
100
AcDbEntity
  8
VHH-035
100
AcDbCircle
 10
9.313548
 20
615.924908
 30
0.0
 40
46.241633
100
AcDbArc
 50
295.720623
 51
310.187569
  0
ARC
  5
107
100
AcDbEntity
  8
VHH-035
100
AcDbCircle
 10
13.688776
 20
634.916525
 30
0.0
 40
60.0
100
AcDbArc
 50
287.747333
 51
295.081486
  0
ARC
  5
108
100
AcDbEntity
  8
VHH-035
100
AcDbCircle
 10
9.313548
 20
615.924908
 30
0.0
 40
49.329327
100
AcDbArc
 50
295.720623
 51
303.410632
  0
ARC
  5
109
100
AcDbEntity
  8
VHH-035
100
AcDbCircle
 10
55.814208
 20
587.829278
 30
0.0
 40
5.0
100
AcDbArc
 50
114.666174
 51
148.85969
  0
LINE
  5
10A
100
AcDbEntity
  8
VHH-035
100
AcDbLine
 10
56.084165
 20
596.4193
 30
0.0
 11
51.212272
 21
594.181964
 31
0.0
  0
ARC
  5
10B
100
AcDbEntity
  8
VHH-035
100
AcDbCircle
 10
56.292831
 20
595.964923
 30
0.0
 40
0.5
100
AcDbArc
 50
72.379007
 51
114.666174
  0
ARC
  5
10C
100
AcDbEntity
  8
VHH-035
100
AcDbCircle
 10
53.298925
 20
589.63819
 30
0.0
 40
5.0
100
AcDbArc
 50
114.666174
 51
149.136447
  0
LINE
  5
10D
100
AcDbEntity
  8
VHH-035
100
AcDbLine
 10
50.450763
 20
593.009198
 30
0.0
 11
51.860382
 21
591.938718
 31
0.0
  0
ARC
  5
10E
100
AcDbEntity
  8
VHH-035
100
AcDbCircle
 10
59.439242
 20
594.965554
 30
0.0
 40
0.5
100
AcDbArc
 50
341.159855
 51
72.379007
  0
LINE
  5
10F
100
AcDbEntity
  8
VHH-035
100
AcDbLine
 10
59.881355
 20
595.199083
 30
0.0
 11
53.727555
 21
592.373052
 31
0.0
  0
LINE
  5
110
100
AcDbEntity
  8
VHH-035
100
AcDbLine
 10
59.590601
 20
595.442093
 30
0.0
 11
56.44419
 21
596.441463
 31
0.0
  0
LINE
  5
111
100
AcDbEntity
  8
035-DWG
100
AcDbLine
 10
-50.774709
 20
791.069091
 30
0.0
 11
-149.074709
 21
791.069091
 31
0.0
  0
LINE
  5
112
100
AcDbEntity
  8
035-DWG
100
AcDbLine
 10
-149.074709
 20
789.569091
 30
0.0
 11
-47.774709
 21
789.569091
 31
0.0
  0
LINE
  5
113
100
AcDbEntity
  8
025-DWG
100
AcDbLine
 10
-44.274709
 20
786.069091
 30
0.0
 11
-149.074709
 21
786.069091
 31
0.0
  0
LINE
  5
114
100
AcDbEntity
  8
035-DWG
100
AcDbLine
 10
-139.480024
 20
759.311206
 30
0.0
 11
-23.94892
 21
679.7374
 31
0.0
  0
LINE
  5
115
100
AcDbEntity
  8
035-DWG
100
AcDbLine
 10
-136.076607
 20
764.252538
 30
0.0
 11
-20.545503
 21
684.678731
 31
0.0
  0
ARC
  5
116
100
AcDbEntity
  8
035-DWG
100
AcDbCircle
 10
-55.224709
 20
792.369091
 30
0.0
 40
2.8
100
AcDbArc
 50
207.664004
 51
332.335996
  0
POLYLINE
  5
117
100
AcDbEntity
  8
035-DWG
100
AcDb2dPolyline
 66
     1
 10
0.0
 20
0.0
 30
0.0
 70
     2
  0
VERTEX
  5
118
100
AcDbEntity
  8
035-DWG
100
AcDbVertex
100
AcDb2dVertex
 10
-156.457646
 20
768.394169
 30
0.0
 42
-0.028161
  0
VERTEX
  5
119
100
AcDbEntity
  8
035-DWG
100
AcDbVertex
100
AcDb2dVertex
 10
-155.365688
 20
770.748823
 30
0.0
 42
-0.028161
 70
     1
  0
VERTEX
  5
11A
100
AcDbEntity
  8
035-DWG
100
AcDbVertex
100
AcDb2dVertex
 10
-154.01604
 20
772.965851
 30
0.0
 42
-0.028161
  0
VERTEX
  5
11B
100
AcDbEntity
  8
035-DWG
100
AcDbVertex
100
AcDb2dVertex
 10
-152.4258
 20
775.017169
 30
0.0
 42
-0.028161
 70
     1
  0
VERTEX
  5
11C
100
AcDbEntity
  8
035-DWG
100
AcDbVertex
100
AcDb2dVertex
 10
-150.615114
 20
776.876788
 30
0.0
  0
SEQEND
  5
11D
100
AcDbEntity
  8
035-DWG
  0
LINE
  5
11E
100
AcDbEntity
  8
035-DWG
100
AcDbLine
 10
-150.615114
 20
776.876788
 30
0.0
 11
-139.115983
 21
768.956586
 31
0.0
  0
CIRCLE
  5
11F
100
AcDbEntity
  8
035-DWG
100
AcDbCircle
 10
-149.074709
 20
769.562434
 30
0.0
 40
2.6
  0
LINE
  5
120
100
AcDbEntity
  8
035-DWG
100
AcDbLine
 10
-156.457646
 20
768.394169
 30
0.0
 11
-144.958515
 21
760.473968
 31
0.0
  0
LWPOLYLINE
  5
121
100
AcDbEntity
  8
025-DWG
100
AcDbPolyline
 90
        3
 70
     0
 43
0.0
 10
-144.958515
 20
760.473968
 42
0.068936
 10
-142.662219
 20
761.896692
 42
0.01937
 10
-142.094668
 20
762.405706
 42
0.068936
  0
LINE
  5
122
100
AcDbEntity
  8
035-DWG
100
AcDbLine
 10
-141.793241
 20
760.254587
 30
0.0
 11
-140.889668
 21
759.985611
 31
0.0
  0
ARC
  5
123
100
AcDbEntity
  8
035-DWG
100
AcDbCircle
 10
-143.219778
 20
755.462406
 30
0.0
 40
5.0
100
AcDbArc
 50
73.422773
 51
89.622595
  0
LINE
  5
124
100
AcDbEntity
  8
035-DWG
100
AcDbLine
 10
-144.958515
 20
760.473968
 30
0.0
 11
-143.186844
 21
760.462298
 31
0.0
  0
LWPOLYLINE
  5
125
100
AcDbEntity
  8
025-DWG
100
AcDbPolyline
 90
        3
 70
     0
 43
0.0
 10
-140.19258
 20
764.970866
 42
0.036834
 10
-139.626637
 20
766.303974
 42
0.068936
 10
-139.115983
 20
768.956586
  0
LINE
  5
126
100
AcDbEntity
  8
035-DWG
100
AcDbLine
 10
-139.115983
 20
768.956586
 30
0.0
 11
-138.473503
 21
767.305473
 31
0.0
  0
LINE
  5
127
100
AcDbEntity
  8
035-DWG
100
AcDbLine
 10
-137.782638
 20
766.077475
 30
0.0
 11
-137.209222
 21
765.329152
 31
0.0
  0
ARC
  5
128
100
AcDbEntity
  8
035-DWG
100
AcDbCircle
 10
-133.813842
 20
769.118636
 30
0.0
 40
5.0
100
AcDbArc
 50
201.261967
 51
217.461788
  0
ARC
  5
129
100
AcDbEntity
  8
035-DWG
100
AcDbCircle
 10
-142.316205
 20
755.193431
 30
0.0
 40
5.0
100
AcDbArc
 50
55.442281
 51
73.422773
  0
ARC
  5
12A
100
AcDbEntity
  8
035-DWG
100
AcDbCircle
 10
-133.240427
 20
768.370313
 30
0.0
 40
5.0
100
AcDbArc
 50
217.461788
 51
235.442281
  0
ARC
  5
12B
100
AcDbEntity
  8
035-DWG
100
AcDbCircle
 10
-22.247211
 20
682.208065
 30
0.0
 40
3.0
100
AcDbArc
 50
235.442281
 51
55.442281
  0
ARC
  5
12C
100
AcDbEntity
  8
035-DWG
100
AcDbCircle
 10
-47.774709
 20
786.069091
 30
0.0
 40
3.5
100
AcDbArc
 50
0.0
 51
90.0
  0
LINE
  5
12D
100
AcDbEntity
  8
035-DWG
100
AcDbLine
 10
-44.274709
 20
786.069091
 30
0.0
 11
-44.274709
 21
776.069091
 31
0.0
  0
ARC
  5
12E
100
AcDbEntity
  8
035-DWG
100
AcDbCircle
 10
-50.774709
 20
793.069091
 30
0.0
 40
2.0
100
AcDbArc
 50
270.0
 51
360.0
  0
POINT
  5
12F
100
AcDbEntity
  8
DEFPOINTS
  6
BYBLOCK
 62
     0
100
AcDbPoint
 10
-47.774709
 20
789.569091
 30
0.0
  0
LINE
  5
130
100
AcDbEntity
  8
025-DWG
100
AcDbLine
 10
-258.724709
 20
898.469091
 30
0.0
 11
-149.074709
 21
898.469091
 31
0.0
  0
LINE
  5
131
100
AcDbEntity
  8
035-DWG
100
AcDbLine
 10
-258.724709
 20
893.469091
 30
0.0
 11
-149.074709
 21
893.469091
 31
0.0
  0
LINE
  5
132
100
AcDbEntity
  8
035-DWG
100
AcDbLine
 10
-256.924709
 20
900.269091
 30
0.0
 11
-149.074709
 21
900.269091
 31
0.0
  0
LINE
  5
133
100
AcDbEntity
  8
035-DWG
100
AcDbLine
 10
-322.774709
 20
974.221337
 30
0.0
 11
-174.459599
 21
974.221337
 31
0.0
  0
LINE
  5
134
100
AcDbEntity
  8
035-DWG
100
AcDbLine
 10
-168.858786
 20
1001.072079
 30
0.0
 11
-322.774709
 21
1001.072079
 31
0.0
  0
LINE
  5
135
100
AcDbEntity
  8
035-DWG
100
AcDbLine
 10
-223.537813
 20
907.859034
 30
0.0
 11
-175.331078
 21
909.363686
 31
0.0
  0
LINE
  5
136
100
AcDbEntity
  8
025-DWG
100
AcDbLine
 10
-249.374709
 20
879.970653
 30
0.0
 11
-149.074709
 21
879.970653
 31
0.0
  0
LINE
  5
137
100
AcDbEntity
  8
025-DWG
100
AcDbLine
 10
-249.374709
 20
874.970653
 30
0.0
 11
-149.074709
 21
874.970653
 31
0.0
  0
LINE
  5
138
100
AcDbEntity
  8
035-DWG
100
AcDbLine
 10
-322.774709
 20
1002.926632
 30
0.0
 11
-322.774709
 21
1001.072079
 31
0.0
  0
LINE
  5
139
100
AcDbEntity
  8
035-DWG
100
AcDbLine
 10
-423.374709
 20
1002.926632
 30
0.0
 11
-423.374709
 21
964.926632
 31
0.0
  0
LINE
  5
13A
100
AcDbEntity
  8
035-DWG
  6
CONTINUOUS
 62
     2
100
AcDbLine
 10
-432.348385
 20
928.6
 30
0.0
 11
-334.074709
 21
928.6
 31
0.0
  0
LINE
  5
13B
100
AcDbEntity
  8
035-DWG
  6
CONTINUOUS
 62
     2
100
AcDbLine
 10
-432.348385
 20
950.739266
 30
0.0
 11
-331.114599
 21
950.739266
 31
0.0
  0
LINE
  5
13C
100
AcDbEntity
  8
035-DWG
100
AcDbLine
 10
-420.206216
 20
964.400001
 30
0.0
 11
-361.490691
 21
964.400001
 31
0.0
  0
LINE
  5
13D
100
AcDbEntity
  8
035-DWG
100
AcDbLine
 10
-423.374709
 20
964.926632
 30
0.0
 11
-333.491654
 21
964.926632
 31
0.0
  0
LINE
  5
13E
100
AcDbEntity
  8
035-DWG
  6
CONTINUOUS
 62
     2
100
AcDbLine
 10
-325.943202
 20
964.400001
 30
0.0
 11
-408.852199
 21
964.400001
 31
0.0
  0
LINE
  5
13F
100
AcDbEntity
  8
035-DWG
100
AcDbLine
 10
-361.490691
 20
964.400001
 30
0.0
 11
-408.006216
 21
964.400001
 31
0.0
  0
LINE
  5
140
100
AcDbEntity
  8
035-DWG
  6
CONTINUOUS
 62
     2
100
AcDbLine
 10
-330.919293
 20
952.200001
 30
0.0
 11
-432.348385
 21
952.200001
 31
0.0
  0
LINE
  5
141
100
AcDbEntity
  8
035-DWG
  6
CONTINUOUS
 62
     2
100
AcDbLine
 10
-330.890191
 20
952.417664
 30
0.0
 11
-454.176769
 21
952.417664
 31
0.0
  0
LINE
  5
142
100
AcDbEntity
  8
035-DWG
  6
CONTINUOUS
 62
     2
100
AcDbLine
 10
-432.348385
 20
928.6
 30
0.0
 11
-454.589978
 21
928.6
 31
0.0
  0
LINE
  5
143
100
AcDbEntity
  8
035-DWG
  6
CONTINUOUS
 62
     2
100
AcDbLine
 10
-432.348385
 20
952.200001
 30
0.0
 11
-453.258797
 21
952.200001
 31
0.0
  0
LINE
  5
144
100
AcDbEntity
  8
035-DWG
  6
CONTINUOUS
 62
     2
100
AcDbLine
 10
-453.992739
 20
950.739266
 30
0.0
 11
-432.348385
 21
950.739266
 31
0.0
  0
ARC
  5
145
100
AcDbEntity
  8
035-DWG
100
AcDbCircle
 10
-385.832438
 20
823.597226
 30
0.0
 40
144.937842
100
AcDbArc
 50
103.719112
 51
117.464588
  0
LINE
  5
146
100
AcDbEntity
  8
035-DWG
  6
CONTINUOUS
 62
     2
100
AcDbLine
 10
-455.268636
 20
950.739266
 30
0.0
 11
-455.848381
 21
928.6
 31
0.0
  0
POLYLINE
  5
147
100
AcDbEntity
  8
025-DWG
  6
CONTINUOUS
 62
     7
100
AcDb2dPolyline
 66
     1
 10
0.0
 20
0.0
 30
0.0
 70
   128
  0
VERTEX
  5
148
100
AcDbEntity
  8
025-DWG
 62
     7
100
AcDbVertex
100
AcDb2dVertex
 10
-454.589978
 20
928.6
 30
0.0
  0
VERTEX
  5
149
100
AcDbEntity
  8
025-DWG
 62
     7
100
AcDbVertex
100
AcDb2dVertex
 10
-454.455212
 20
933.597639
 30
0.0
  0
VERTEX
  5
14A
100
AcDbEntity
  8
025-DWG
 62
     7
100
AcDbVertex
100
AcDb2dVertex
 10
-453.992739
 20
950.739266
 30
0.0
  0
SEQEND
  5
14B
100
AcDbEntity
  8
025-DWG
 62
     7
  0
ARC
  5
14C
100
AcDbEntity
  8
035-DWG
  6
CONTINUOUS
 62
     2
100
AcDbCircle
 10
-453.769156
 20
950.7
 30
0.0
 40
1.5
100
AcDbArc
 50
90.0
 51
178.5
  0
LINE
  5
14D
100
AcDbEntity
  8
035-DWG
  6
CONTINUOUS
 62
     2
100
AcDbLine
 10
-453.258797
 20
952.200001
 30
0.0
 11
-453.769162
 21
952.200001
 31
0.0
  0
POLYLINE
  5
14E
100
AcDbEntity
  8
035-DWG
  6
CONTINUOUS
 62
     2
100
AcDb2dPolyline
 66
     1
 10
0.0
 20
0.0
 30
0.0
 70
   128
  0
VERTEX
  5
14F
100
AcDbEntity
  8
035-DWG
 62
     2
100
AcDbVertex
100
AcDb2dVertex
 10
-453.258797
 20
952.200001
 30
0.0
  0
VERTEX
  5
150
100
AcDbEntity
  8
035-DWG
 62
     2
100
AcDbVertex
100
AcDb2dVertex
 10
-453.399673
 20
952.172128
 30
0.0
  0
VERTEX
  5
151
100
AcDbEntity
  8
035-DWG
 62
     2
100
AcDbVertex
100
AcDb2dVertex
 10
-453.535333
 20
952.089546
 30
0.0
  0
VERTEX
  5
152
100
AcDbEntity
  8
035-DWG
 62
     2
100
AcDbVertex
100
AcDb2dVertex
 10
-453.660682
 20
951.955326
 30
0.0
  0
VERTEX
  5
153
100
AcDbEntity
  8
035-DWG
 62
     2
100
AcDbVertex
100
AcDb2dVertex
 10
-453.771129
 20
951.774454
 30
0.0
  0
VERTEX
  5
154
100
AcDbEntity
  8
035-DWG
 62
     2
100
AcDbVertex
100
AcDb2dVertex
 10
-453.862503
 20
951.55365
 30
0.0
  0
VERTEX
  5
155
100
AcDbEntity
  8
035-DWG
 62
     2
100
AcDbVertex
100
AcDb2dVertex
 10
-453.931466
 20
951.301124
 30
0.0
  0
VERTEX
  5
156
100
AcDbEntity
  8
035-DWG
 62
     2
100
AcDbVertex
100
AcDb2dVertex
 10
-453.975424
 20
951.026257
 30
0.0
  0
VERTEX
  5
157
100
AcDbEntity
  8
035-DWG
 62
     2
100
AcDbVertex
100
AcDb2dVertex
 10
-453.992739
 20
950.739266
 30
0.0
  0
SEQEND
  5
158
100
AcDbEntity
  8
035-DWG
 62
     2
  0
POLYLINE
  5
159
100
AcDbEntity
  8
035-DWG
  6
CONTINUOUS
 62
     2
100
AcDb2dPolyline
 66
     1
 10
0.0
 20
0.0
 30
0.0
 70
   128
  0
VERTEX
  5
15A
100
AcDbEntity
  8
035-DWG
 62
     2
100
AcDbVertex
100
AcDb2dVertex
 10
-455.268636
 20
950.739266
 30
0.0
  0
VERTEX
  5
15B
100
AcDbEntity
  8
035-DWG
 62
     2
100
AcDbVertex
100
AcDb2dVertex
 10
-455.153331
 20
950.744349
 30
0.0
  0
VERTEX
  5
15C
100
AcDbEntity
  8
035-DWG
 62
     2
100
AcDbVertex
100
AcDb2dVertex
 10
-454.77049
 20
950.745206
 30
0.0
  0
VERTEX
  5
15D
100
AcDbEntity
  8
035-DWG
 62
     2
100
AcDbVertex
100
AcDb2dVertex
 10
-454.162046
 20
950.740967
 30
0.0
  0
VERTEX
  5
15E
100
AcDbEntity
  8
035-DWG
 62
     2
100
AcDbVertex
100
AcDb2dVertex
 10
-453.992739
 20
950.739266
 30
0.0
  0
SEQEND
  5
15F
100
AcDbEntity
  8
035-DWG
 62
     2
  0
POLYLINE
  5
160
100
AcDbEntity
  8
035-DWG
  6
CONTINUOUS
 62
     2
100
AcDb2dPolyline
 66
     1
 10
0.0
 20
0.0
 30
0.0
 70
   128
  0
VERTEX
  5
161
100
AcDbEntity
  8
035-DWG
 62
     2
100
AcDbVertex
100
AcDb2dVertex
 10
-453.769162
 20
952.200001
 30
0.0
  0
VERTEX
  5
162
100
AcDbEntity
  8
035-DWG
 62
     2
100
AcDbVertex
100
AcDb2dVertex
 10
-453.872964
 20
952.213749
 30
0.0
  0
VERTEX
  5
163
100
AcDbEntity
  8
035-DWG
 62
     2
100
AcDbVertex
100
AcDb2dVertex
 10
-453.975513
 20
952.254616
 30
0.0
  0
VERTEX
  5
164
100
AcDbEntity
  8
035-DWG
 62
     2
100
AcDbVertex
100
AcDb2dVertex
 10
-454.076931
 20
952.322546
 30
0.0
  0
VERTEX
  5
165
100
AcDbEntity
  8
035-DWG
 62
     2
100
AcDbVertex
100
AcDb2dVertex
 10
-454.176769
 20
952.417664
 30
0.0
  0
SEQEND
  5
166
100
AcDbEntity
  8
035-DWG
 62
     2
  0
POLYLINE
  5
167
100
AcDbEntity
  8
035-DWG
  6
CONTINUOUS
 62
     2
100
AcDb2dPolyline
 66
     1
 10
0.0
 20
0.0
 30
0.0
 70
   128
  0
VERTEX
  5
168
100
AcDbEntity
  8
035-DWG
 62
     2
100
AcDbVertex
100
AcDb2dVertex
 10
-454.176769
 20
952.417664
 30
0.0
  0
VERTEX
  5
169
100
AcDbEntity
  8
035-DWG
 62
     2
100
AcDbVertex
100
AcDb2dVertex
 10
-454.398438
 20
952.335844
 30
0.0
  0
VERTEX
  5
16A
100
AcDbEntity
  8
035-DWG
 62
     2
100
AcDbVertex
100
AcDb2dVertex
 10
-454.604223
 20
952.220704
 30
0.0
  0
VERTEX
  5
16B
100
AcDbEntity
  8
035-DWG
 62
     2
100
AcDbVertex
100
AcDb2dVertex
 10
-454.788998
 20
952.07512
 30
0.0
  0
VERTEX
  5
16C
100
AcDbEntity
  8
035-DWG
 62
     2
100
AcDbVertex
100
AcDb2dVertex
 10
-454.948172
 20
951.902715
 30
0.0
  0
VERTEX
  5
16D
100
AcDbEntity
  8
035-DWG
 62
     2
100
AcDbVertex
100
AcDb2dVertex
 10
-455.077752
 20
951.707791
 30
0.0
  0
VERTEX
  5
16E
100
AcDbEntity
  8
035-DWG
 62
     2
100
AcDbVertex
100
AcDb2dVertex
 10
-455.174491
 20
951.495204
 30
0.0
  0
VERTEX
  5
16F
100
AcDbEntity
  8
035-DWG
 62
     2
100
AcDbVertex
100
AcDb2dVertex
 10
-455.236033
 20
951.270256
 30
0.0
  0
VERTEX
  5
170
100
AcDbEntity
  8
035-DWG
 62
     2
100
AcDbVertex
100
AcDb2dVertex
 10
-455.260798
 20
951.038554
 30
0.0
  0
SEQEND
  5
171
100
AcDbEntity
  8
035-DWG
 62
     2
  0
LINE
  5
172
100
AcDbEntity
  8
035-DWG
  6
CONTINUOUS
 62
     2
100
AcDbLine
 10
-455.848381
 20
928.6
 30
0.0
 11
-454.589978
 21
928.6
 31
0.0
  0
LINE
  5
173
100
AcDbEntity
  8
025-DWG
  6
CONTINUOUS
 62
     7
100
AcDbLine
 10
-432.348385
 20
950.739266
 30
0.0
 11
-432.348385
 21
928.6
 31
0.0
  0
LINE
  5
174
100
AcDbEntity
  8
035-DWG
  6
CONTINUOUS
 62
     2
100
AcDbLine
 10
-432.348385
 20
952.200001
 30
0.0
 11
-432.348385
 21
950.739266
 31
0.0
  0
ARC
  5
175
100
AcDbEntity
  8
035-DWG
  6
CONTINUOUS
 62
     2
100
AcDbCircle
 10
-409.020288
 20
965.385771
 30
0.0
 40
1.0
100
AcDbArc
 50
279.676748
 51
332.668413
  0
ARC
  5
176
100
AcDbEntity
  8
035-DWG
  6
CONTINUOUS
 62
     2
100
AcDbCircle
 10
-410.567628
 20
965.385771
 30
0.0
 40
1.0
100
AcDbArc
 50
279.676748
 51
332.668413
  0
LINE
  5
177
100
AcDbEntity
  8
025-DWG
100
AcDbLine
 10
-239.074709
 20
928.817663
 30
0.0
 11
-239.074709
 21
900.269091
 31
0.0
  0
LINE
  5
178
100
AcDbEntity
  8
035-DWG
100
AcDbLine
 10
-233.074709
 20
928.817663
 30
0.0
 11
-233.074709
 21
900.269091
 31
0.0
  0
ARC
  5
179
100
AcDbEntity
  8
035-DWG
100
AcDbCircle
 10
-256.924709
 20
898.469091
 30
0.0
 40
1.8
100
AcDbArc
 50
90.0
 51
180.0
  0
LINE
  5
17A
100
AcDbEntity
  8
035-DWG
100
AcDbLine
 10
-258.724709
 20
893.469091
 30
0.0
 11
-258.724709
 21
898.469091
 31
0.0
  0
LINE
  5
17B
100
AcDbEntity
  8
035-DWG
100
AcDbLine
 10
-249.374709
 20
879.970653
 30
0.0
 11
-249.374709
 21
893.469091
 31
0.0
  0
LINE
  5
17C
100
AcDbEntity
  8
035-DWG
100
AcDbLine
 10
-231.127755
 20
900.269091
 30
0.0
 11
-223.537813
 21
907.859034
 31
0.0
  0
LINE
  5
17D
100
AcDbEntity
  8
035-DWG
100
AcDbLine
 10
-225.81716
 20
905.579686
 30
0.0
 11
-231.127755
 21
900.269091
 31
0.0
  0
ARC
  5
17E
100
AcDbEntity
  8
035-DWG
100
AcDbCircle
 10
-249.374709
 20
877.470653
 30
0.0
 40
2.5
100
AcDbArc
 50
270.0
 51
90.0
  0
LINE
  5
17F
100
AcDbEntity
  8
035-DWG
  6
CONTINUOUS
 62
     2
100
AcDbLine
 10
-233.149392
 20
952.200001
 30
0.0
 11
-330.844277
 21
952.200001
 31
0.0
  0
LINE
  5
180
100
AcDbEntity
  8
035-DWG
  6
CONTINUOUS
 62
     2
100
AcDbLine
 10
-331.114599
 20
950.739266
 30
0.0
 11
-232.422416
 21
950.739266
 31
0.0
  0
LINE
  5
181
100
AcDbEntity
  8
035-DWG
  6
CONTINUOUS
 62
     2
100
AcDbLine
 10
-299.844173
 20
928.6
 30
0.0
 11
-239.928813
 21
928.6
 31
0.0
  0
LINE
  5
182
100
AcDbEntity
  8
035-DWG
  6
CONTINUOUS
 62
     2
100
AcDbLine
 10
-266.99209
 20
952.417664
 30
0.0
 11
-330.890191
 21
952.417664
 31
0.0
  0
LINE
  5
183
100
AcDbEntity
  8
035-DWG
100
AcDbLine
 10
-288.074709
 20
955.200001
 30
0.0
 11
-299.590645
 21
955.200001
 31
0.0
  0
LINE
  5
184
100
AcDbEntity
  8
025-DWG
100
AcDbLine
 10
-288.074709
 20
953.200001
 30
0.0
 11
-295.431706
 21
953.200001
 31
0.0
  0
LINE
  5
185
100
AcDbEntity
  8
025-DWG
100
AcDbLine
 10
-288.074709
 20
958.4993
 30
0.0
 11
-307.322561
 21
958.4993
 31
0.0
  0
ARC
  5
186
100
AcDbEntity
  8
035-DWG
100
AcDbCircle
 10
-299.074709
 20
929.950001
 30
0.0
 40
31.25
100
AcDbArc
 50
70.696107
 51
109.303893
  0
LINE
  5
187
100
AcDbEntity
  8
035-DWG
100
AcDbLine
 10
-288.074709
 20
956.200001
 30
0.0
 11
-301.80645
 21
956.200001
 31
0.0
  0
ARC
  5
188
100
AcDbEntity
  8
035-DWG
100
AcDbCircle
 10
-360.31698
 20
823.597226
 30
0.0
 40
144.937842
100
AcDbArc
 50
62.535412
 51
76.280888
  0
LINE
  5
189
100
AcDbEntity
  8
035-DWG
  6
CONTINUOUS
 62
     2
100
AcDbLine
 10
-334.074709
 20
928.6
 30
0.0
 11
-299.844173
 21
928.6
 31
0.0
  0
LINE
  5
18A
100
AcDbEntity
  8
035-DWG
100
AcDbLine
 10
-322.774709
 20
964.926632
 30
0.0
 11
-333.491654
 21
964.926632
 31
0.0
  0
LINE
  5
18B
100
AcDbEntity
  8
035-DWG
100
AcDbLine
 10
-322.774709
 20
1001.072079
 30
0.0
 11
-322.774709
 21
964.926632
 31
0.0
  0
LINE
  5
18C
100
AcDbEntity
  8
035-DWG
100
AcDbLine
 10
-288.674709
 20
956.200001
 30
0.0
 11
-288.674709
 21
955.200001
 31
0.0
  0
LINE
  5
18D
100
AcDbEntity
  8
035-DWG
  6
CONTINUOUS
 62
     2
100
AcDbLine
 10
-240.266657
 20
952.417664
 30
0.0
 11
-266.99209
 21
952.417664
 31
0.0
  0
ARC
  5
18E
100
AcDbEntity
  8
035-DWG
100
AcDbCircle
 10
-287.074709
 20
953.200001
 30
0.0
 40
1.0
100
AcDbArc
 50
180.0
 51
231.475038
  0
LINE
  5
18F
100
AcDbEntity
  8
035-DWG
100
AcDbLine
 10
-288.074709
 20
955.200001
 30
0.0
 11
-288.074709
 21
953.200001
 31
0.0
  0
LINE
  5
190
100
AcDbEntity
  8
035-DWG
  6
CONTINUOUS
 62
     2
100
AcDbLine
 10
-232.428116
 20
950.956929
 30
0.0
 11
-231.848379
 21
928.817663
 31
0.0
  0
POLYLINE
  5
191
100
AcDbEntity
  8
025-DWG
  6
CONTINUOUS
 62
     7
100
AcDb2dPolyline
 66
     1
 10
0.0
 20
0.0
 30
0.0
 70
   128
  0
VERTEX
  5
192
100
AcDbEntity
  8
025-DWG
 62
     7
100
AcDbVertex
100
AcDb2dVertex
 10
-237.759414
 20
928.817663
 30
0.0
  0
VERTEX
  5
193
100
AcDbEntity
  8
025-DWG
 62
     7
100
AcDbVertex
100
AcDb2dVertex
 10
-237.833176
 20
933.815302
 30
0.0
  0
VERTEX
  5
194
100
AcDbEntity
  8
025-DWG
 62
     7
100
AcDbVertex
100
AcDb2dVertex
 10
-238.08735
 20
950.956929
 30
0.0
  0
SEQEND
  5
195
100
AcDbEntity
  8
025-DWG
 62
     7
  0
LINE
  5
196
100
AcDbEntity
  8
025-DWG
  6
CONTINUOUS
 62
     7
100
AcDbLine
 10
-240.266657
 20
950.956929
 30
0.0
 11
-239.928813
 21
928.817663
 31
0.0
  0
LINE
  5
197
100
AcDbEntity
  8
035-DWG
  6
CONTINUOUS
 62
     2
100
AcDbLine
 10
-239.394934
 20
952.417664
 30
0.0
 11
-240.266657
 21
952.417664
 31
0.0
  0
ARC
  5
198
100
AcDbEntity
  8
035-DWG
  6
CONTINUOUS
 62
     2
100
AcDbCircle
 10
-233.927602
 20
950.917663
 30
0.0
 40
1.5
100
AcDbArc
 50
1.5
 51
90.0
  0
LINE
  5
199
100
AcDbEntity
  8
035-DWG
  6
CONTINUOUS
 62
     2
100
AcDbLine
 10
-233.927602
 20
952.417664
 30
0.0
 11
-239.394934
 21
952.417664
 31
0.0
  0
POLYLINE
  5
19A
100
AcDbEntity
  8
035-DWG
  6
CONTINUOUS
 62
     2
100
AcDb2dPolyline
 66
     1
 10
0.0
 20
0.0
 30
0.0
 70
   128
  0
VERTEX
  5
19B
100
AcDbEntity
  8
035-DWG
 62
     2
100
AcDbVertex
100
AcDb2dVertex
 10
-238.08735
 20
950.956929
 30
0.0
  0
VERTEX
  5
19C
100
AcDbEntity
  8
035-DWG
 62
     2
100
AcDbVertex
100
AcDb2dVertex
 10
-238.118216
 20
951.24392
 30
0.0
  0
VERTEX
  5
19D
100
AcDbEntity
  8
035-DWG
 62
     2
100
AcDbVertex
100
AcDb2dVertex
 10
-238.19653
 20
951.518787
 30
0.0
  0
VERTEX
  5
19E
100
AcDbEntity
  8
035-DWG
 62
     2
100
AcDbVertex
100
AcDb2dVertex
 10
-238.31938
 20
951.771313
 30
0.0
  0
VERTEX
  5
19F
100
AcDbEntity
  8
035-DWG
 62
     2
100
AcDbVertex
100
AcDb2dVertex
 10
-238.482201
 20
951.992117
 30
0.0
  0
VERTEX
  5
1A0
100
AcDbEntity
  8
035-DWG
 62
     2
100
AcDbVertex
100
AcDb2dVertex
 10
-238.678942
 20
952.172989
 30
0.0
  0
VERTEX
  5
1A1
100
AcDbEntity
  8
035-DWG
 62
     2
100
AcDbVertex
100
AcDb2dVertex
 10
-238.902291
 20
952.307209
 30
0.0
  0
VERTEX
  5
1A2
100
AcDbEntity
  8
035-DWG
 62
     2
100
AcDbVertex
100
AcDb2dVertex
 10
-239.143949
 20
952.389791
 30
0.0
  0
VERTEX
  5
1A3
100
AcDbEntity
  8
035-DWG
 62
     2
100
AcDbVertex
100
AcDb2dVertex
 10
-239.394934
 20
952.417664
 30
0.0
  0
SEQEND
  5
1A4
100
AcDbEntity
  8
035-DWG
 62
     2
  0
LINE
  5
1A5
100
AcDbEntity
  8
035-DWG
  6
CONTINUOUS
 62
     2
100
AcDbLine
 10
-240.266657
 20
950.956929
 30
0.0
 11
-240.266657
 21
952.417664
 31
0.0
  0
LINE
  5
1A6
100
AcDbEntity
  8
035-DWG
  6
CONTINUOUS
 62
     2
100
AcDbLine
 10
-239.928813
 20
928.817663
 30
0.0
 11
-237.759414
 21
928.817663
 31
0.0
  0
LINE
  5
1A7
100
AcDbEntity
  8
035-DWG
  6
CONTINUOUS
 62
     2
100
AcDbLine
 10
-231.848379
 20
928.817663
 30
0.0
 11
-237.759414
 21
928.817663
 31
0.0
  0
LINE
  5
1A8
100
AcDbEntity
  8
035-DWG
100
AcDbLine
 10
-288.074709
 20
958.4993
 30
0.0
 11
-288.074709
 21
956.200001
 31
0.0
  0
ARC
  5
1A9
100
AcDbEntity
  8
035-DWG
100
AcDbCircle
 10
-289.074709
 20
958.4993
 30
0.0
 40
1.0
100
AcDbArc
 50
0.0
 51
70.696107
  0
LINE
  5
1AA
100
AcDbEntity
  8
035-DWG
100
AcDbLine
 10
-422.874709
 20
1005.926632
 30
0.0
 11
-338.636422
 21
1005.926632
 31
0.0
  0
LINE
  5
1AB
100
AcDbEntity
  8
025-DWG
100
AcDbLine
 10
-423.374709
 20
1002.926632
 30
0.0
 11
-338.636422
 21
1002.926632
 31
0.0
  0
LINE
  5
1AC
100
AcDbEntity
  8
025-DWG
100
AcDbLine
 10
-353.692762
 20
1047.274522
 30
0.0
 11
-373.074709
 21
1047.274522
 31
0.0
  0
LINE
  5
1AD
100
AcDbEntity
  8
025-DWG
100
AcDbLine
 10
-352.362476
 20
1049.471456
 30
0.0
 11
-373.074709
 21
1049.471456
 31
0.0
  0
LINE
  5
1AE
100
AcDbEntity
  8
035-DWG
100
AcDbLine
 10
-351.757686
 20
1056.926632
 30
0.0
 11
-373.074709
 21
1056.926632
 31
0.0
  0
ARC
  5
1AF
100
AcDbEntity
  8
035-DWG
100
AcDbCircle
 10
-415.274709
 20
1045.707848
 30
0.0
 40
7.0
100
AcDbArc
 50
101.070855
 51
180.0
  0
LINE
  5
1B0
100
AcDbEntity
  8
025-DWG
100
AcDbLine
 10
-420.074147
 20
1047.274522
 30
0.0
 11
-392.456656
 21
1047.274522
 31
0.0
  0
LINE
  5
1B1
100
AcDbEntity
  8
035-DWG
100
AcDbLine
 10
-422.874709
 20
1005.926632
 30
0.0
 11
-423.374709
 21
1002.926632
 31
0.0
  0
LINE
  5
1B2
100
AcDbEntity
  8
035-DWG
100
AcDbLine
 10
-422.274709
 20
1005.926632
 30
0.0
 11
-422.274709
 21
1045.707848
 31
0.0
  0
LINE
  5
1B3
100
AcDbEntity
  8
025-DWG
100
AcDbLine
 10
-392.456656
 20
1047.274522
 30
0.0
 11
-373.074709
 21
1047.274522
 31
0.0
  0
LINE
  5
1B4
100
AcDbEntity
  8
035-DWG
100
AcDbLine
 10
-416.618868
 20
1052.577581
 30
0.0
 11
-397.88707
 21
1056.24272
 31
0.0
  0
LINE
  5
1B5
100
AcDbEntity
  8
025-DWG
100
AcDbLine
 10
-417.43819
 20
1049.471456
 30
0.0
 11
-393.786941
 21
1049.471456
 31
0.0
  0
LINE
  5
1B6
100
AcDbEntity
  8
035-DWG
100
AcDbLine
 10
-397.885674
 20
1056.240415
 30
0.0
 11
-395.057499
 21
1056.796365
 31
0.0
  0
ARC
  5
1B7
100
AcDbEntity
  8
035-DWG
100
AcDbCircle
 10
-393.713339
 20
1049.926632
 30
0.0
 40
7.0
100
AcDbArc
 50
90.0
 51
101.070855
  0
LINE
  5
1B8
100
AcDbEntity
  8
035-DWG
100
AcDbLine
 10
-393.713339
 20
1056.926632
 30
0.0
 11
-373.074709
 21
1056.926632
 31
0.0
  0
LINE
  5
1B9
100
AcDbEntity
  8
025-DWG
100
AcDbLine
 10
-393.786941
 20
1049.471456
 30
0.0
 11
-373.074709
 21
1049.471456
 31
0.0
  0
ARC
  5
1BA
100
AcDbEntity
  8
035-DWG
100
AcDbCircle
 10
-330.874709
 20
1045.707848
 30
0.0
 40
7.0
100
AcDbArc
 50
0.0
 51
78.929145
  0
LINE
  5
1BB
100
AcDbEntity
  8
035-DWG
100
AcDbLine
 10
-323.274709
 20
1005.926632
 30
0.0
 11
-339.239703
 21
1005.926632
 31
0.0
  0
LINE
  5
1BC
100
AcDbEntity
  8
025-DWG
100
AcDbLine
 10
-322.774709
 20
1002.926632
 30
0.0
 11
-338.636422
 21
1002.926632
 31
0.0
  0
LINE
  5
1BD
100
AcDbEntity
  8
025-DWG
100
AcDbLine
 10
-326.07527
 20
1047.274522
 30
0.0
 11
-353.692762
 21
1047.274522
 31
0.0
  0
LINE
  5
1BE
100
AcDbEntity
  8
035-DWG
100
AcDbLine
 10
-323.274709
 20
1005.926632
 30
0.0
 11
-322.774709
 21
1002.926632
 31
0.0
  0
LINE
  5
1BF
100
AcDbEntity
  8
035-DWG
100
AcDbLine
 10
-323.874709
 20
1005.926632
 30
0.0
 11
-323.874709
 21
1045.707848
 31
0.0
  0
LINE
  5
1C0
100
AcDbEntity
  8
025-DWG
100
AcDbLine
 10
-328.711227
 20
1049.471456
 30
0.0
 11
-352.362476
 21
1049.471456
 31
0.0
  0
LINE
  5
1C1
100
AcDbEntity
  8
035-DWG
100
AcDbLine
 10
-329.530549
 20
1052.577581
 30
0.0
 11
-351.757686
 21
1056.926632
 31
0.0
  0
LINE
  5
1C2
100
AcDbEntity
  8
035-DWG
100
AcDbLine
 10
-348.263743
 20
1056.240415
 30
0.0
 11
-351.091919
 21
1056.796365
 31
0.0
  0
LINE
  5
1C3
100
AcDbEntity
  8
035-DWG
100
AcDbLine
 10
-145.296491
 20
1002.834541
 30
0.0
 11
-147.92395
 21
993.252631
 31
0.0
  0
LINE
  5
1C4
100
AcDbEntity
  8
035-DWG
100
AcDbLine
 10
-158.798088
 20
1006.536819
 30
0.0
 11
-160.912864
 21
998.82458
 31
0.0
  0
LINE
  5
1C5
100
AcDbEntity
  8
025-DWG
100
AcDbLine
 10
-39.424709
 20
898.469091
 30
0.0
 11
-149.074709
 21
898.469091
 31
0.0
  0
LINE
  5
1C6
100
AcDbEntity
  8
035-DWG
100
AcDbLine
 10
-39.424709
 20
893.469091
 30
0.0
 11
-149.074709
 21
893.469091
 31
0.0
  0
LINE
  5
1C7
100
AcDbEntity
  8
035-DWG
100
AcDbLine
 10
-41.224709
 20
900.269091
 30
0.0
 11
-149.074709
 21
900.269091
 31
0.0
  0
LINE
  5
1C8
100
AcDbEntity
  8
025-DWG
100
AcDbLine
 10
-48.774709
 20
874.970653
 30
0.0
 11
-149.074709
 21
874.970653
 31
0.0
  0
LINE
  5
1C9
100
AcDbEntity
  8
025-DWG
100
AcDbLine
 10
-48.774709
 20
879.970653
 30
0.0
 11
-149.074709
 21
879.970653
 31
0.0
  0
ARC
  5
1CA
100
AcDbEntity
  8
035-DWG
100
AcDbCircle
 10
-122.774709
 20
911.863305
 30
0.0
 40
2.5
100
AcDbArc
 50
150.0
 51
269.0
  0
ARC
  5
1CB
100
AcDbEntity
  8
035-DWG
100
AcDbCircle
 10
-175.374709
 20
911.863305
 30
0.0
 40
2.5
100
AcDbArc
 50
271.0
 51
30.0
  0
LINE
  5
1CC
100
AcDbEntity
  8
035-DWG
100
AcDbLine
 10
-140.074709
 20
900.269091
 30
0.0
 11
-140.074709
 21
928.745635
 31
0.0
  0
LINE
  5
1CD
100
AcDbEntity
  8
035-DWG
100
AcDbLine
 10
-158.074709
 20
900.269091
 30
0.0
 11
-158.074709
 21
928.745635
 31
0.0
  0
LINE
  5
1CE
100
AcDbEntity
  8
035-DWG
100
AcDbLine
 10
-122.81834
 20
909.363686
 30
0.0
 11
-140.074709
 21
909.363686
 31
0.0
  0
LINE
  5
1CF
100
AcDbEntity
  8
035-DWG
100
AcDbLine
 10
-175.331078
 20
909.363686
 30
0.0
 11
-158.074709
 21
909.363686
 31
0.0
  0
LINE
  5
1D0
100
AcDbEntity
  8
035-DWG
100
AcDbLine
 10
-74.611605
 20
907.859034
 30
0.0
 11
-122.81834
 21
909.363686
 31
0.0
  0
LINE
  5
1D1
100
AcDbEntity
  8
035-DWG
100
AcDbLine
 10
-67.021662
 20
900.269091
 30
0.0
 11
-74.611605
 21
907.859034
 31
0.0
  0
LINE
  5
1D2
100
AcDbEntity
  8
035-DWG
100
AcDbLine
 10
-72.332257
 20
905.579686
 30
0.0
 11
-67.021662
 21
900.269091
 31
0.0
  0
LINE
  5
1D3
100
AcDbEntity
  8
035-DWG
100
AcDbLine
 10
-122.486034
 20
917.363305
 30
0.0
 11
-140.074709
 21
917.363305
 31
0.0
  0
LINE
  5
1D4
100
AcDbEntity
  8
025-DWG
100
AcDbLine
 10
-124.939772
 20
913.113305
 30
0.0
 11
-140.074709
 21
913.113305
 31
0.0
  0
POLYLINE
  5
1D5
100
AcDbEntity
  8
035-DWG
100
AcDb2dPolyline
 66
     1
 10
0.0
 20
0.0
 30
0.0
 75
     6
  0
VERTEX
  5
1D6
100
AcDbEntity
  8
035-DWG
100
AcDbVertex
100
AcDb2dVertex
 10
-136.156457
 20
942.072079
 30
0.0
  0
VERTEX
  5
1D7
100
AcDbEntity
  8
035-DWG
100
AcDbVertex
100
AcDb2dVertex
 10
-137.465915
 20
948.872563
 30
0.0
  0
VERTEX
  5
1D8
100
AcDbEntity
  8
035-DWG
100
AcDbVertex
100
AcDb2dVertex
 10
-139.031926
 20
956.296636
 30
0.0
  0
VERTEX
  5
1D9
100
AcDbEntity
  8
035-DWG
100
AcDbVertex
100
AcDb2dVertex
 10
-140.408599
 20
962.118003
 30
0.0
  0
VERTEX
  5
1DA
100
AcDbEntity
  8
035-DWG
100
AcDbVertex
100
AcDb2dVertex
 10
-141.633799
 20
966.622715
 30
0.0
  0
VERTEX
  5
1DB
100
AcDbEntity
  8
035-DWG
100
AcDbVertex
100
AcDb2dVertex
 10
-142.745396
 20
970.096828
 30
0.0
  0
VERTEX
  5
1DC
100
AcDbEntity
  8
035-DWG
100
AcDbVertex
100
AcDb2dVertex
 10
-143.781257
 20
972.826393
 30
0.0
  0
VERTEX
  5
1DD
100
AcDbEntity
  8
035-DWG
100
AcDbVertex
100
AcDb2dVertex
 10
-144.747754
 20
975.025792
 30
0.0
  0
SEQEND
  5
1DE
100
AcDbEntity
  8
035-DWG
  0
POLYLINE
  5
1DF
100
AcDbEntity
  8
035-DWG
100
AcDb2dPolyline
 66
     1
 10
0.0
 20
0.0
 30
0.0
 75
     6
  0
VERTEX
  5
1E0
100
AcDbEntity
  8
035-DWG
100
AcDbVertex
100
AcDb2dVertex
 10
-166.87836
 20
959.007563
 30
0.0
  0
VERTEX
  5
1E1
100
AcDbEntity
  8
035-DWG
100
AcDbVertex
100
AcDb2dVertex
 10
-166.296711
 20
956.296636
 30
0.0
  0
VERTEX
  5
1E2
100
AcDbEntity
  8
035-DWG
100
AcDbVertex
100
AcDb2dVertex
 10
-164.921137
 20
948.872563
 30
0.0
  0
VERTEX
  5
1E3
100
AcDbEntity
  8
035-DWG
100
AcDbVertex
100
AcDb2dVertex
 10
-163.805756
 20
942.072079
 30
0.0
  0
SEQEND
  5
1E4
100
AcDbEntity
  8
035-DWG
  0
LINE
  5
1E5
100
AcDbEntity
  8
025-DWG
100
AcDbLine
 10
-173.209645
 20
913.113305
 30
0.0
 11
-158.074709
 21
913.113305
 31
0.0
  0
LINE
  5
1E6
100
AcDbEntity
  8
035-DWG
100
AcDbLine
 10
-175.663384
 20
917.363305
 30
0.0
 11
-158.074709
 21
917.363305
 31
0.0
  0
LINE
  5
1E7
100
AcDbEntity
  8
035-DWG
100
AcDbLine
 10
-173.209645
 20
913.113305
 30
0.0
 11
-175.663384
 21
917.363305
 31
0.0
  0
LINE
  5
1E8
100
AcDbEntity
  8
035-DWG
100
AcDbLine
 10
-144.074709
 20
932.745635
 30
0.0
 11
-154.074709
 21
932.745635
 31
0.0
  0
LINE
  5
1E9
100
AcDbEntity
  8
035-DWG
100
AcDbLine
 10
-141.428957
 20
931.745635
 30
0.0
 11
-156.72046
 21
931.745635
 31
0.0
  0
LINE
  5
1EA
100
AcDbEntity
  8
035-DWG
100
AcDbLine
 10
-163.805756
 20
942.072079
 30
0.0
 11
-136.156457
 21
942.072079
 31
0.0
  0
ARC
  5
1EB
100
AcDbEntity
  8
035-DWG
100
AcDbCircle
 10
-144.074709
 20
928.745635
 30
0.0
 40
4.0
100
AcDbArc
 50
0.0
 51
90.0
  0
ARC
  5
1EC
100
AcDbEntity
  8
035-DWG
100
AcDbCircle
 10
-154.074709
 20
928.745635
 30
0.0
 40
4.0
100
AcDbArc
 50
90.0
 51
180.0
  0
POLYLINE
  5
1ED
100
AcDbEntity
  8
035-DWG
100
AcDb2dPolyline
 66
     1
 10
0.0
 20
0.0
 30
0.0
 75
     6
  0
VERTEX
  5
1EE
100
AcDbEntity
  8
035-DWG
100
AcDbVertex
100
AcDb2dVertex
 10
-177.256072
 20
976.109255
 30
0.0
  0
VERTEX
  5
1EF
100
AcDbEntity
  8
035-DWG
100
AcDbVertex
100
AcDb2dVertex
 10
-176.052796
 20
975.52747
 30
0.0
  0
VERTEX
  5
1F0
100
AcDbEntity
  8
035-DWG
100
AcDbVertex
100
AcDb2dVertex
 10
-174.902105
 20
974.671497
 30
0.0
  0
VERTEX
  5
1F1
100
AcDbEntity
  8
035-DWG
100
AcDbVertex
100
AcDb2dVertex
 10
-173.796488
 20
973.546755
 30
0.0
  0
VERTEX
  5
1F2
100
AcDbEntity
  8
035-DWG
100
AcDbVertex
100
AcDb2dVertex
 10
-172.728432
 20
972.15866
 30
0.0
  0
VERTEX
  5
1F3
100
AcDbEntity
  8
035-DWG
100
AcDbVertex
100
AcDb2dVertex
 10
-171.690424
 20
970.512631
 30
0.0
  0
VERTEX
  5
1F4
100
AcDbEntity
  8
035-DWG
100
AcDbVertex
100
AcDb2dVertex
 10
-170.674954
 20
968.614083
 30
0.0
  0
VERTEX
  5
1F5
100
AcDbEntity
  8
035-DWG
100
AcDbVertex
100
AcDb2dVertex
 10
-169.674508
 20
966.468436
 30
0.0
  0
VERTEX
  5
1F6
100
AcDbEntity
  8
035-DWG
100
AcDbVertex
100
AcDb2dVertex
 10
-168.681574
 20
964.081106
 30
0.0
  0
VERTEX
  5
1F7
100
AcDbEntity
  8
035-DWG
100
AcDbVertex
100
AcDb2dVertex
 10
-167.689774
 20
961.440207
 30
0.0
  0
VERTEX
  5
1F8
100
AcDbEntity
  8
035-DWG
100
AcDbVertex
100
AcDb2dVertex
 10
-166.87836
 20
959.007563
 30
0.0
  0
SEQEND
  5
1F9
100
AcDbEntity
  8
035-DWG
  0
LINE
  5
1FA
100
AcDbEntity
  8
035-DWG
100
AcDbLine
 10
-150.44111
 20
988.207834
 30
0.0
 11
-148.34581
 21
992.18649
 31
0.0
  0
POLYLINE
  5
1FB
100
AcDbEntity
  8
035-DWG
100
AcDb2dPolyline
 66
     1
 10
0.0
 20
0.0
 30
0.0
 75
     6
  0
VERTEX
  5
1FC
100
AcDbEntity
  8
035-DWG
100
AcDbVertex
100
AcDb2dVertex
 10
-150.949886
 20
988.962856
 30
0.0
  0
VERTEX
  5
1FD
100
AcDbEntity
  8
035-DWG
100
AcDbVertex
100
AcDb2dVertex
 10
-150.449423
 20
988.221511
 30
0.0
  0
VERTEX
  5
1FE
100
AcDbEntity
  8
035-DWG
100
AcDbVertex
100
AcDb2dVertex
 10
-149.344797
 20
986.404181
 30
0.0
  0
VERTEX
  5
1FF
100
AcDbEntity
  8
035-DWG
100
AcDbVertex
100
AcDb2dVertex
 10
-148.353502
 20
984.560413
 30
0.0
  0
VERTEX
  5
200
100
AcDbEntity
  8
035-DWG
100
AcDbVertex
100
AcDb2dVertex
 10
-147.449561
 20
982.63844
 30
0.0
  0
VERTEX
  5
201
100
AcDbEntity
  8
035-DWG
100
AcDbVertex
100
AcDb2dVertex
 10
-146.607001
 20
980.586495
 30
0.0
  0
VERTEX
  5
202
100
AcDbEntity
  8
035-DWG
100
AcDbVertex
100
AcDb2dVertex
 10
-145.799847
 20
978.352814
 30
0.0
  0
VERTEX
  5
203
100
AcDbEntity
  8
035-DWG
100
AcDbVertex
100
AcDb2dVertex
 10
-145.002123
 20
975.88563
 30
0.0
  0
VERTEX
  5
204
100
AcDbEntity
  8
035-DWG
100
AcDbVertex
100
AcDb2dVertex
 10
-144.747754
 20
975.025792
 30
0.0
  0
SEQEND
  5
205
100
AcDbEntity
  8
035-DWG
  0
POLYLINE
  5
206
100
AcDbEntity
  8
035-DWG
100
AcDb2dPolyline
 66
     1
 10
0.0
 20
0.0
 30
0.0
 75
     6
  0
VERTEX
  5
207
100
AcDbEntity
  8
035-DWG
100
AcDbVertex
100
AcDb2dVertex
 10
-168.858786
 20
1001.072079
 30
0.0
  0
VERTEX
  5
208
100
AcDbEntity
  8
035-DWG
100
AcDbVertex
100
AcDb2dVertex
 10
-165.868327
 20
1000.746904
 30
0.0
  0
VERTEX
  5
209
100
AcDbEntity
  8
035-DWG
100
AcDbVertex
100
AcDb2dVertex
 10
-163.149668
 20
999.970566
 30
0.0
  0
VERTEX
  5
20A
100
AcDbEntity
  8
035-DWG
100
AcDbVertex
100
AcDb2dVertex
 10
-161.692044
 20
999.288525
 30
0.0
  0
SEQEND
  5
20B
100
AcDbEntity
  8
035-DWG
  0
POLYLINE
  5
20C
100
AcDbEntity
  8
035-DWG
100
AcDb2dPolyline
 66
     1
 10
0.0
 20
0.0
 30
0.0
 70
     2
  0
VERTEX
  5
20D
100
AcDbEntity
  8
035-DWG
100
AcDbVertex
100
AcDb2dVertex
 10
-161.692044
 20
999.288525
 30
0.0
 42
-0.028978
  0
VERTEX
  5
20E
100
AcDbEntity
  8
035-DWG
100
AcDbVertex
100
AcDb2dVertex
 10
-158.69614
 20
997.324285
 30
0.0
 42
-0.028978
 70
     1
  0
VERTEX
  5
20F
100
AcDbEntity
  8
035-DWG
100
AcDbVertex
100
AcDb2dVertex
 10
-155.947432
 20
995.026833
 30
0.0
 42
-0.031851
  0
VERTEX
  5
210
100
AcDbEntity
  8
035-DWG
100
AcDbVertex
100
AcDb2dVertex
 10
-153.255319
 20
992.154184
 30
0.0
 42
-0.031851
 70
     1
  0
VERTEX
  5
211
100
AcDbEntity
  8
035-DWG
100
AcDbVertex
100
AcDb2dVertex
 10
-150.949886
 20
988.962856
 30
0.0
  0
SEQEND
  5
212
100
AcDbEntity
  8
035-DWG
  0
LINE
  5
213
100
AcDbEntity
  8
035-DWG
100
AcDbLine
 10
-124.939772
 20
913.113305
 30
0.0
 11
-122.486034
 21
917.363305
 31
0.0
  0
ARC
  5
214
100
AcDbEntity
  8
035-DWG
100
AcDbCircle
 10
-41.224709
 20
898.469091
 30
0.0
 40
1.8
100
AcDbArc
 50
360.0
 51
90.0
  0
LINE
  5
215
100
AcDbEntity
  8
035-DWG
100
AcDbLine
 10
-39.424709
 20
893.469091
 30
0.0
 11
-39.424709
 21
898.469091
 31
0.0
  0
ARC
  5
216
100
AcDbEntity
  8
035-DWG
100
AcDbCircle
 10
-48.774709
 20
877.470653
 30
0.0
 40
2.5
100
AcDbArc
 50
90.0
 51
270.0
  0
LINE
  5
217
100
AcDbEntity
  8
035-DWG
100
AcDbLine
 10
-48.774709
 20
879.970653
 30
0.0
 11
-48.774709
 21
893.469091
 31
0.0
  0
ELLIPSE
  5
218
100
AcDbEntity
  8
035-DWG
100
AcDbEllipse
 10
-152.047289
 20
1004.68568
 30
0.0
 11
-6.750798734826511
 21
1.851139228115479
 31
0.0
210
0.0
220
0.0
230
0.9999999999999998
 40
0.746466
 41
3.141592653589793
 42
6.283185307179586
  0
LINE
  5
219
100
AcDbEntity
  8
035-DWG
100
AcDbLine
 10
-27.278376
 20
543.942668
 30
0.421745
 11
-27.278376
 21
647.578069
 31
0.421745
  0
LINE
  5
21A
100
AcDbEntity
  8
035-DWG
100
AcDbLine
 10
-34.798485
 20
541.516227
 30
0.421745
 11
-34.798485
 21
687.210203
 31
0.421745
  0
LINE
  5
21B
100
AcDbEntity
  8
035-DWG
100
AcDbLine
 10
-47.583217
 20
557.829728
 30
0.421745
 11
-47.583217
 21
696.015882
 31
0.421745
  0
LINE
  5
21C
100
AcDbEntity
  8
035-DWG
100
AcDbLine
 10
-27.278376
 20
689.316099
 30
0.421745
 11
-27.278376
 21
764.80352
 31
0.421745
  0
LINE
  5
21D
100
AcDbEntity
  8
035-DWG
100
AcDbLine
 10
-34.798485
 20
694.495689
 30
0.421745
 11
-34.798485
 21
764.145596
 31
0.421745
  0
LINE
  5
21E
100
AcDbEntity
  8
035-DWG
100
AcDbLine
 10
-47.583217
 20
703.301368
 30
0.421745
 11
-47.583217
 21
763.027076
 31
0.421745
  0
LINE
  5
21F
100
AcDbEntity
  8
035-DWG
100
AcDbLine
 10
-27.278376
 20
647.578069
 30
0.421745
 11
-27.278376
 21
682.030613
 31
0.421745
  0
LINE
  5
220
100
AcDbEntity
  8
035-DWG
100
AcDbLine
 10
-24.125951
 20
774.126177
 30
0.421745
 11
-23.889593
 21
765.1
 31
0.421745
  0
LINE
  5
221
100
AcDbEntity
  8
025-DWG
100
AcDbLine
 10
-37.165298
 20
773.353309
 30
0.421745
 11
-37.135262
 21
763.941154
 31
0.421745
  0
LINE
  5
222
100
AcDbEntity
  8
025-DWG
100
AcDbLine
 10
-36.172752
 20
773.353309
 30
0.421745
 11
-36.142993
 21
764.027966
 31
0.421745
  0
LINE
  5
223
100
AcDbEntity
  8
025-DWG
100
AcDbLine
 10
-34.470605
 20
774.126177
 30
0.421745
 11
-34.438855
 21
764.177059
 31
0.421745
  0
LINE
  5
224
100
AcDbEntity
  8
025-DWG
100
AcDbLine
 10
-35.107837
 20
764.118531
 30
0.421745
 11
-35.138179
 21
773.626348
 31
0.421745
  0
LINE
  5
225
100
AcDbEntity
  8
025-DWG
100
AcDbLine
 10
-35.182531
 20
773.319989
 30
0.421745
 11
-35.153154
 21
764.114566
 31
0.421745
  0
LINE
  5
226
100
AcDbEntity
  8
025-DWG
100
AcDbLine
 10
-35.678438
 20
773.382978
 30
0.421745
 11
-35.648722
 21
764.071209
 31
0.421745
  0
LINE
  5
227
100
AcDbEntity
  8
025-DWG
100
AcDbLine
 10
-36.670985
 20
773.382978
 30
0.421745
 11
-36.640991
 21
763.984397
 31
0.421745
  0
LINE
  5
228
100
AcDbEntity
  8
025-DWG
100
AcDbLine
 10
-37.663531
 20
773.382978
 30
0.421745
 11
-37.63326
 21
763.897585
 31
0.421745
  0
LINE
  5
229
100
AcDbEntity
  8
025-DWG
100
AcDbLine
 10
-33.126272
 20
774.126177
 30
0.421745
 11
-32.958062
 21
764.306612
 31
0.421745
  0
LINE
  5
22A
100
AcDbEntity
  8
025-DWG
100
AcDbLine
 10
-41.135483
 20
773.353309
 30
0.421745
 11
-41.104338
 21
763.593905
 31
0.421745
  0
LINE
  5
22B
100
AcDbEntity
  8
025-DWG
100
AcDbLine
 10
-42.128029
 20
773.353309
 30
0.421745
 11
-42.096607
 21
763.507093
 31
0.421745
  0
LINE
  5
22C
100
AcDbEntity
  8
025-DWG
100
AcDbLine
 10
-43.120575
 20
773.353309
 30
0.421745
 11
-43.088876
 21
763.42028
 31
0.421745
  0
LINE
  5
22D
100
AcDbEntity
  8
025-DWG
100
AcDbLine
 10
-44.113121
 20
773.353309
 30
0.421745
 11
-44.081145
 21
763.333468
 31
0.421745
  0
LINE
  5
22E
100
AcDbEntity
  8
025-DWG
100
AcDbLine
 10
-45.105668
 20
773.353309
 30
0.421745
 11
-45.073415
 21
763.246656
 31
0.421745
  0
LINE
  5
22F
100
AcDbEntity
  8
025-DWG
100
AcDbLine
 10
-44.611354
 20
773.382978
 30
0.421745
 11
-44.579144
 21
763.289899
 31
0.421745
  0
LINE
  5
230
100
AcDbEntity
  8
025-DWG
100
AcDbLine
 10
-43.618808
 20
773.382978
 30
0.421745
 11
-43.586875
 21
763.376711
 31
0.421745
  0
LINE
  5
231
100
AcDbEntity
  8
025-DWG
100
AcDbLine
 10
-42.626262
 20
773.382978
 30
0.421745
 11
-42.594606
 21
763.463523
 31
0.421745
  0
LINE
  5
232
100
AcDbEntity
  8
025-DWG
100
AcDbLine
 10
-41.633715
 20
773.382978
 30
0.421745
 11
-41.602337
 21
763.550336
 31
0.421745
  0
LINE
  5
233
100
AcDbEntity
  8
025-DWG
100
AcDbLine
 10
-40.641169
 20
773.382978
 30
0.421745
 11
-40.610068
 21
763.637148
 31
0.421745
  0
LINE
  5
234
100
AcDbEntity
  8
025-DWG
100
AcDbLine
 10
-40.142937
 20
773.353309
 30
0.421745
 11
-40.112069
 21
763.680717
 31
0.421745
  0
LINE
  5
235
100
AcDbEntity
  8
025-DWG
100
AcDbLine
 10
-39.150391
 20
773.353309
 30
0.421745
 11
-39.1198
 21
763.76753
 31
0.421745
  0
LINE
  5
236
100
AcDbEntity
  8
025-DWG
100
AcDbLine
 10
-38.157844
 20
773.353309
 30
0.421745
 11
-38.127531
 21
763.854342
 31
0.421745
  0
LINE
  5
237
100
AcDbEntity
  8
025-DWG
100
AcDbLine
 10
-38.656077
 20
773.382978
 30
0.421745
 11
-38.62553
 21
763.810773
 31
0.421745
  0
LINE
  5
238
100
AcDbEntity
  8
025-DWG
100
AcDbLine
 10
-39.648623
 20
773.382978
 30
0.421745
 11
-39.617799
 21
763.72396
 31
0.421745
  0
LWPOLYLINE
  5
239
100
AcDbEntity
  8
035-DWG
100
AcDbPolyline
 90
        3
 70
     0
 43
0.0
 38
0.421745
 10
-48.264027
 20
762.967513
 10
-48.231664
 20
768.528566
 10
-48.199391
 20
774.115966
  0
LINE
  5
23A
100
AcDbEntity
  8
025-DWG
100
AcDbLine
 10
-46.098214
 20
773.353309
 30
0.421745
 11
-46.065684
 21
763.159843
 31
0.421745
  0
LINE
  5
23B
100
AcDbEntity
  8
025-DWG
100
AcDbLine
 10
-47.09076
 20
773.353309
 30
0.421745
 11
-47.057953
 21
763.073031
 31
0.421745
  0
LINE
  5
23C
100
AcDbEntity
  8
025-DWG
100
AcDbLine
 10
-47.572448
 20
773.319989
 30
0.421745
 11
-47.539613
 21
763.030891
 31
0.421745
  0
LINE
  5
23D
100
AcDbEntity
  8
025-DWG
100
AcDbLine
 10
-46.596446
 20
773.382978
 30
0.421745
 11
-46.563682
 21
763.116274
 31
0.421745
  0
LINE
  5
23E
100
AcDbEntity
  8
025-DWG
100
AcDbLine
 10
-45.6039
 20
773.382978
 30
0.421745
 11
-45.571413
 21
763.203086
 31
0.421745
  0
LWPOLYLINE
  5
23F
100
AcDbEntity
  8
025-DWG
100
AcDbPolyline
 90
        2
 70
     0
 43
0.0
 38
0.421745
 10
-47.676238
 20
767.594243
 10
-47.696691
 20
773.629343
  0
LWPOLYLINE
  5
240
100
AcDbEntity
  8
035-DWG
100
AcDbPolyline
 90
        5
 70
     0
 43
0.0
 38
0.421745
 10
-23.889593
 20
765.1
 10
-24.489987
 20
765.047472
 10
-26.263783
 20
764.892285
 10
-29.13006
 20
764.641519
 10
-48.264027
 20
762.967513
  0
LWPOLYLINE
  5
241
100
AcDbEntity
  8
025-DWG
100
AcDbPolyline
 90
      124
 70
     0
 43
0.0
 38
0.421745
 10
-47.676238
 20
767.594243
 10
-47.676454
 20
767.557018
 10
-47.67667
 20
767.519794
 10
-47.676886
 20
767.48257
 10
-47.677102
 20
767.445346
 10
-47.677319
 20
767.408122
 10
-47.677535
 20
767.370898
 10
-47.677751
 20
767.333674
 10
-47.677967
 20
767.296451
 10
-47.678183
 20
767.259227
 10
-47.6784
 20
767.222004
 10
-47.678616
 20
767.184781
 10
-47.678832
 20
767.147558
 10
-47.679048
 20
767.110335
 10
-47.679264
 20
767.073112
 10
-47.679481
 20
767.03589
 10
-47.679697
 20
766.998667
 10
-47.679913
 20
766.961445
 10
-47.680129
 20
766.924222
 10
-47.680346
 20
766.887
 10
-47.680562
 20
766.849778
 10
-47.680778
 20
766.812556
 10
-47.680995
 20
766.775335
 10
-47.681211
 20
766.738113
 10
-47.681427
 20
766.700892
 10
-47.681644
 20
766.66367
 10
-47.68186
 20
766.626449
 10
-47.682076
 20
766.589228
 10
-47.682293
 20
766.552007
 10
-47.682509
 20
766.514786
 10
-47.682726
 20
766.477566
 10
-47.682942
 20
766.440345
 10
-47.683158
 20
766.403125
 10
-47.683375
 20
766.365904
 10
-47.683591
 20
766.328684
 10
-47.683808
 20
766.291464
 10
-47.684024
 20
766.254244
 10
-47.684241
 20
766.217024
 10
-47.684457
 20
766.179805
 10
-47.684674
 20
766.142585
 10
-47.68489
 20
766.105366
 10
-47.685107
 20
766.068146
 10
-47.685323
 20
766.030927
 10
-47.68554
 20
765.993708
 10
-47.685756
 20
765.956489
 10
-47.685973
 20
765.919271
 10
-47.686189
 20
765.882052
 10
-47.686406
 20
765.844834
 10
-47.686622
 20
765.807615
 10
-47.686839
 20
765.770397
 10
-47.687056
 20
765.733179
 10
-47.687272
 20
765.695961
 10
-47.687489
 20
765.658743
 10
-47.687705
 20
765.621525
 10
-47.687922
 20
765.584308
 10
-47.688139
 20
765.54709
 10
-47.688355
 20
765.509873
 10
-47.688572
 20
765.472656
 10
-47.688789
 20
765.435439
 10
-47.689005
 20
765.398222
 10
-47.689222
 20
765.361005
 10
-47.689439
 20
765.323788
 10
-47.689656
 20
765.286572
 10
-47.689872
 20
765.249355
 10
-47.690089
 20
765.212139
 10
-47.690306
 20
765.174923
 10
-47.690523
 20
765.137707
 10
-47.690739
 20
765.100491
 10
-47.690956
 20
765.063275
 10
-47.691173
 20
765.026059
 10
-47.69139
 20
764.988844
 10
-47.691607
 20
764.951628
 10
-47.691823
 20
764.914413
 10
-47.69204
 20
764.877198
 10
-47.692257
 20
764.839983
 10
-47.692474
 20
764.802768
 10
-47.692691
 20
764.765553
 10
-47.692908
 20
764.728339
 10
-47.693124
 20
764.691124
 10
-47.693341
 20
764.65391
 10
-47.693558
 20
764.616696
 10
-47.693775
 20
764.579481
 10
-47.693992
 20
764.542268
 10
-47.694209
 20
764.505054
 10
-47.694426
 20
764.46784
 10
-47.694643
 20
764.430626
 10
-47.69486
 20
764.393413
 10
-47.695077
 20
764.3562
 10
-47.695294
 20
764.318986
 10
-47.695511
 20
764.281773
 10
-47.695728
 20
764.24456
 10
-47.695945
 20
764.207348
 10
-47.696162
 20
764.170135
 10
-47.696379
 20
764.132922
 10
-47.696596
 20
764.09571
 10
-47.696813
 20
764.058498
 10
-47.69703
 20
764.021285
 10
-47.697247
 20
763.984073
 10
-47.697464
 20
763.946862
 10
-47.697681
 20
763.90965
 10
-47.697898
 20
763.872438
 10
-47.698116
 20
763.835227
 10
-47.698333
 20
763.798015
 10
-47.69855
 20
763.760804
 10
-47.698767
 20
763.723593
 10
-47.698984
 20
763.686382
 10
-47.699201
 20
763.649171
 10
-47.699418
 20
763.61196
 10
-47.699636
 20
763.57475
 10
-47.699853
 20
763.537539
 10
-47.70007
 20
763.500329
 10
-47.700287
 20
763.463119
 10
-47.700504
 20
763.425908
 10
-47.700722
 20
763.388699
 10
-47.700939
 20
763.351489
 10
-47.701156
 20
763.314279
 10
-47.701373
 20
763.277069
 10
-47.701591
 20
763.23986
 10
-47.701808
 20
763.202651
 10
-47.702025
 20
763.165441
 10
-47.702243
 20
763.128232
 10
-47.70246
 20
763.091023
 10
-47.702677
 20
763.053815
 10
-47.702895
 20
763.016606
  0
LINE
  5
242
100
AcDbEntity
  8
025-DWG
100
AcDbLine
 10
-47.676238
 20
767.594243
 30
0.421745
 11
-47.661641
 21
763.020215
 31
0.421745
  0
LINE
  5
243
100
AcDbEntity
  8
025-DWG
100
AcDbLine
 10
-44.890745
 20
773.626348
 30
0.421745
 11
-45.883291
 21
773.626348
 31
0.421745
  0
LWPOLYLINE
  5
244
100
AcDbEntity
  8
025-DWG
100
AcDbPolyline
 90
        6
 70
     0
 43
0.0
 38
0.421745
 10
-45.6039
 20
773.382978
 10
-45.538139
 20
773.239929
 10
-45.402717
 20
773.151519
 10
-45.24936
 20
773.151519
 10
-45.136646
 20
773.239929
 10
-45.107627
 20
773.382978
  0
LINE
  5
245
100
AcDbEntity
  8
025-DWG
100
AcDbLine
 10
-34.470605
 20
774.126177
 30
0.421745
 11
-47.638485
 21
774.126177
 31
0.421745
  0
LINE
  5
246
100
AcDbEntity
  8
035-DWG
100
AcDbLine
 10
-47.590986
 20
775.1
 30
0.421745
 11
-34.592433
 21
775.1
 31
0.421745
  0
LINE
  5
247
100
AcDbEntity
  8
035-DWG
100
AcDbLine
 10
-25.125609
 20
775.1
 30
0.421745
 11
-33.780221
 21
775.1
 31
0.421745
  0
LINE
  5
248
100
AcDbEntity
  8
025-DWG
100
AcDbLine
 10
-33.126272
 20
774.126177
 30
0.421745
 11
-24.125951
 21
774.126177
 31
0.421745
  0
LINE
  5
249
100
AcDbEntity
  8
035-DWG
100
AcDbLine
 10
-28.751452
 20
775.6
 30
0.421745
 11
-38.751452
 21
775.6
 31
0.421745
  0
ARC
  5
24A
100
AcDbEntity
  8
035-DWG
100
AcDbCircle
 10
-25.125609
 20
774.1
 30
0.421745
 40
1.0
100
AcDbArc
 50
1.5
 51
90.0
  0
LINE
  5
24B
100
AcDbEntity
  8
035-DWG
100
AcDbLine
 10
-28.751452
 20
775.1
 30
0.421745
 11
-28.751452
 21
775.6
 31
0.421745
  0
ELLIPSE
  5
24C
100
AcDbEntity
  8
025-DWG
100
AcDbEllipse
 10
-34.592433
 20
774.1
 30
0.421745
 11
0.0000000000001439
 21
1.0
 31
0.0
210
0.0
220
0.0
230
-1.0
 40
0.121869
 41
-0.0000000000011811
 42
1.544616388014916
  0
ELLIPSE
  5
24D
100
AcDbEntity
  8
025-DWG
100
AcDbEllipse
 10
-33.780221
 20
774.1
 30
0.421745
 11
-0.0000000000002905
 21
1.0
 31
0.0
210
0.0
220
0.0
230
-1.0
 40
0.654173
 41
0.0000000000004439
 42
1.544616388015124
  0
LWPOLYLINE
  5
24E
100
AcDbEntity
  8
025-DWG
100
AcDbPolyline
 90
        3
 70
     0
 43
0.0
 38
0.421745
 10
-38.159804
 20
773.382978
 10
-38.109227
 20
773.555067
 10
-37.942922
 20
773.626348
  0
LINE
  5
24F
100
AcDbEntity
  8
025-DWG
100
AcDbLine
 10
-37.942922
 20
773.626348
 30
0.421745
 11
-38.935468
 21
773.626348
 31
0.421745
  0
LINE
  5
250
100
AcDbEntity
  8
025-DWG
100
AcDbLine
 10
-34.470605
 20
774.126177
 30
0.421745
 11
-33.126272
 21
774.126177
 31
0.421745
  0
LINE
  5
251
100
AcDbEntity
  8
025-DWG
100
AcDbLine
 10
-36.950376
 20
773.626348
 30
0.421745
 11
-37.942922
 21
773.626348
 31
0.421745
  0
LWPOLYLINE
  5
252
100
AcDbEntity
  8
025-DWG
100
AcDbPolyline
 90
        3
 70
     0
 43
0.0
 38
0.421745
 10
-37.167258
 20
773.382978
 10
-37.11668
 20
773.555067
 10
-36.950376
 20
773.626348
  0
LWPOLYLINE
  5
253
100
AcDbEntity
  8
025-DWG
100
AcDbPolyline
 90
        6
 70
     0
 43
0.0
 38
0.421745
 10
-37.663531
 20
773.382978
 10
-37.59777
 20
773.239929
 10
-37.462348
 20
773.151519
 10
-37.308991
 20
773.151519
 10
-37.196277
 20
773.239929
 10
-37.167258
 20
773.382978
  0
LWPOLYLINE
  5
254
100
AcDbEntity
  8
025-DWG
100
AcDbPolyline
 90
        3
 70
     0
 43
0.0
 38
0.421745
 10
-37.942922
 20
773.626348
 10
-37.758309
 20
773.555067
 10
-37.663531
 20
773.382978
  0
LWPOLYLINE
  5
255
100
AcDbEntity
  8
025-DWG
100
AcDbPolyline
 90
        4
 70
     0
 43
0.0
 38
0.421745
 10
-36.950376
 20
773.626348
 10
-36.82212
 20
773.593743
 10
-36.719856
 20
773.504663
 10
-36.670985
 20
773.382978
  0
LINE
  5
256
100
AcDbEntity
  8
025-DWG
100
AcDbLine
 10
-35.138179
 20
773.626348
 30
0.421745
 11
-35.957829
 21
773.626348
 31
0.421745
  0
LWPOLYLINE
  5
257
100
AcDbEntity
  8
025-DWG
100
AcDbPolyline
 90
        4
 70
     0
 43
0.0
 38
0.421745
 10
-36.174712
 20
773.382978
 10
-36.157095
 20
773.504663
 10
-36.07771
 20
773.593743
 10
-35.957829
 20
773.626348
  0
LINE
  5
258
100
AcDbEntity
  8
025-DWG
100
AcDbLine
 10
-35.182531
 20
773.319989
 30
0.421745
 11
-35.138179
 21
773.626348
 31
0.421745
  0
LWPOLYLINE
  5
259
100
AcDbEntity
  8
025-DWG
100
AcDbPolyline
 90
        6
 70
     0
 43
0.0
 38
0.421745
 10
-35.678438
 20
773.382978
 10
-35.621384
 20
773.250429
 10
-35.502676
 20
773.160649
 10
-35.360615
 20
773.142604
 10
-35.24104
 20
773.202119
 10
-35.182531
 20
773.319989
  0
LWPOLYLINE
  5
25A
100
AcDbEntity
  8
025-DWG
100
AcDbPolyline
 90
        4
 70
     0
 43
0.0
 38
0.421745
 10
-35.957829
 20
773.626348
 10
-35.829574
 20
773.593743
 10
-35.72731
 20
773.504663
 10
-35.678438
 20
773.382978
  0
LINE
  5
25B
100
AcDbEntity
  8
025-DWG
100
AcDbLine
 10
-35.957829
 20
773.626348
 30
0.421745
 11
-36.950376
 21
773.626348
 31
0.421745
  0
LWPOLYLINE
  5
25C
100
AcDbEntity
  8
025-DWG
100
AcDbPolyline
 90
        6
 70
     0
 43
0.0
 38
0.421745
 10
-36.670985
 20
773.382978
 10
-36.605224
 20
773.239929
 10
-36.469802
 20
773.151519
 10
-36.316445
 20
773.151519
 10
-36.203731
 20
773.239929
 10
-36.174712
 20
773.382978
  0
LINE
  5
25D
100
AcDbEntity
  8
025-DWG
100
AcDbLine
 10
-40.92056
 20
773.626348
 30
0.421745
 11
-41.913106
 21
773.626348
 31
0.421745
  0
LWPOLYLINE
  5
25E
100
AcDbEntity
  8
025-DWG
100
AcDbPolyline
 90
        4
 70
     0
 43
0.0
 38
0.421745
 10
-41.913106
 20
773.626348
 10
-41.784851
 20
773.593743
 10
-41.682587
 20
773.504663
 10
-41.633715
 20
773.382978
  0
LWPOLYLINE
  5
25F
100
AcDbEntity
  8
025-DWG
100
AcDbPolyline
 90
        3
 70
     0
 43
0.0
 38
0.421745
 10
-41.137442
 20
773.382978
 10
-41.086865
 20
773.555067
 10
-40.92056
 20
773.626348
  0
LWPOLYLINE
  5
260
100
AcDbEntity
  8
025-DWG
100
AcDbPolyline
 90
        6
 70
     0
 43
0.0
 38
0.421745
 10
-41.633715
 20
773.382978
 10
-41.567955
 20
773.239929
 10
-41.432533
 20
773.151519
 10
-41.279176
 20
773.151519
 10
-41.166461
 20
773.239929
 10
-41.137442
 20
773.382978
  0
LWPOLYLINE
  5
261
100
AcDbEntity
  8
025-DWG
100
AcDbPolyline
 90
        4
 70
     0
 43
0.0
 38
0.421745
 10
-40.92056
 20
773.626348
 10
-40.792305
 20
773.593743
 10
-40.69004
 20
773.504663
 10
-40.641169
 20
773.382978
  0
LINE
  5
262
100
AcDbEntity
  8
025-DWG
100
AcDbLine
 10
-38.935468
 20
773.626348
 30
0.421745
 11
-39.928014
 21
773.626348
 31
0.421745
  0
LWPOLYLINE
  5
263
100
AcDbEntity
  8
025-DWG
100
AcDbPolyline
 90
        3
 70
     0
 43
0.0
 38
0.421745
 10
-40.144896
 20
773.382978
 10
-40.094319
 20
773.555067
 10
-39.928014
 20
773.626348
  0
LWPOLYLINE
  5
264
100
AcDbEntity
  8
025-DWG
100
AcDbPolyline
 90
        3
 70
     0
 43
0.0
 38
0.421745
 10
-39.15235
 20
773.382978
 10
-39.101773
 20
773.555067
 10
-38.935468
 20
773.626348
  0
LWPOLYLINE
  5
265
100
AcDbEntity
  8
025-DWG
100
AcDbPolyline
 90
        6
 70
     0
 43
0.0
 38
0.421745
 10
-39.648623
 20
773.382978
 10
-39.582862
 20
773.239929
 10
-39.44744
 20
773.151519
 10
-39.294083
 20
773.151519
 10
-39.181369
 20
773.239929
 10
-39.15235
 20
773.382978
  0
LWPOLYLINE
  5
266
100
AcDbEntity
  8
025-DWG
100
AcDbPolyline
 90
        4
 70
     0
 43
0.0
 38
0.421745
 10
-39.928014
 20
773.626348
 10
-39.799758
 20
773.593743
 10
-39.697494
 20
773.504663
 10
-39.648623
 20
773.382978
  0
LWPOLYLINE
  5
267
100
AcDbEntity
  8
025-DWG
100
AcDbPolyline
 90
        4
 70
     0
 43
0.0
 38
0.421745
 10
-38.935468
 20
773.626348
 10
-38.807212
 20
773.593743
 10
-38.704948
 20
773.504663
 10
-38.656077
 20
773.382978
  0
LWPOLYLINE
  5
268
100
AcDbEntity
  8
025-DWG
100
AcDbPolyline
 90
        7
 70
     0
 43
0.0
 38
0.421745
 10
-38.656077
 20
773.382978
 10
-38.607206
 20
773.261293
 10
-38.504942
 20
773.172214
 10
-38.376686
 20
773.139608
 10
-38.256805
 20
773.172214
 10
-38.177421
 20
773.261293
 10
-38.159804
 20
773.382978
  0
LINE
  5
269
100
AcDbEntity
  8
025-DWG
100
AcDbLine
 10
-39.928014
 20
773.626348
 30
0.421745
 11
-40.92056
 21
773.626348
 31
0.421745
  0
LWPOLYLINE
  5
26A
100
AcDbEntity
  8
025-DWG
100
AcDbPolyline
 90
        6
 70
     0
 43
0.0
 38
0.421745
 10
-40.641169
 20
773.382978
 10
-40.575408
 20
773.239929
 10
-40.439986
 20
773.151519
 10
-40.28663
 20
773.151519
 10
-40.173915
 20
773.239929
 10
-40.144896
 20
773.382978
  0
LWPOLYLINE
  5
26B
100
AcDbEntity
  8
025-DWG
100
AcDbPolyline
 90
        3
 70
     0
 43
0.0
 38
0.421745
 10
-45.107627
 20
773.382978
 10
-45.05705
 20
773.555067
 10
-44.890745
 20
773.626348
  0
LWPOLYLINE
  5
26C
100
AcDbEntity
  8
025-DWG
100
AcDbPolyline
 90
        4
 70
     0
 43
0.0
 38
0.421745
 10
-44.890745
 20
773.626348
 10
-44.762489
 20
773.593743
 10
-44.660225
 20
773.504663
 10
-44.611354
 20
773.382978
  0
LINE
  5
26D
100
AcDbEntity
  8
025-DWG
100
AcDbLine
 10
-42.905653
 20
773.626348
 30
0.421745
 11
-43.898199
 21
773.626348
 31
0.421745
  0
LWPOLYLINE
  5
26E
100
AcDbEntity
  8
025-DWG
100
AcDbPolyline
 90
        3
 70
     0
 43
0.0
 38
0.421745
 10
-44.115081
 20
773.382978
 10
-44.064503
 20
773.555067
 10
-43.898199
 20
773.626348
  0
LWPOLYLINE
  5
26F
100
AcDbEntity
  8
025-DWG
100
AcDbPolyline
 90
        4
 70
     0
 43
0.0
 38
0.421745
 10
-43.898199
 20
773.626348
 10
-43.769943
 20
773.593743
 10
-43.667679
 20
773.504663
 10
-43.618808
 20
773.382978
  0
LWPOLYLINE
  5
270
100
AcDbEntity
  8
025-DWG
100
AcDbPolyline
 90
        3
 70
     0
 43
0.0
 38
0.421745
 10
-43.122535
 20
773.382978
 10
-43.071957
 20
773.555067
 10
-42.905653
 20
773.626348
  0
LWPOLYLINE
  5
271
100
AcDbEntity
  8
025-DWG
100
AcDbPolyline
 90
        6
 70
     0
 43
0.0
 38
0.421745
 10
-43.618808
 20
773.382978
 10
-43.553047
 20
773.239929
 10
-43.417625
 20
773.151519
 10
-43.264268
 20
773.151519
 10
-43.151554
 20
773.239929
 10
-43.122535
 20
773.382978
  0
LWPOLYLINE
  5
272
100
AcDbEntity
  8
025-DWG
100
AcDbPolyline
 90
        3
 70
     0
 43
0.0
 38
0.421745
 10
-42.905653
 20
773.626348
 10
-42.721039
 20
773.555067
 10
-42.626262
 20
773.382978
  0
LWPOLYLINE
  5
273
100
AcDbEntity
  8
025-DWG
100
AcDbPolyline
 90
        3
 70
     0
 43
0.0
 38
0.421745
 10
-42.129988
 20
773.382978
 10
-42.079411
 20
773.555067
 10
-41.913106
 20
773.626348
  0
LINE
  5
274
100
AcDbEntity
  8
025-DWG
100
AcDbLine
 10
-41.913106
 20
773.626348
 30
0.421745
 11
-42.905653
 21
773.626348
 31
0.421745
  0
LWPOLYLINE
  5
275
100
AcDbEntity
  8
025-DWG
100
AcDbPolyline
 90
        6
 70
     0
 43
0.0
 38
0.421745
 10
-42.626262
 20
773.382978
 10
-42.560501
 20
773.239929
 10
-42.425079
 20
773.151519
 10
-42.271722
 20
773.151519
 10
-42.159007
 20
773.239929
 10
-42.129988
 20
773.382978
  0
LINE
  5
276
100
AcDbEntity
  8
025-DWG
100
AcDbLine
 10
-43.898199
 20
773.626348
 30
0.421745
 11
-44.890745
 21
773.626348
 31
0.421745
  0
LWPOLYLINE
  5
277
100
AcDbEntity
  8
025-DWG
100
AcDbPolyline
 90
        6
 70
     0
 43
0.0
 38
0.421745
 10
-44.611354
 20
773.382978
 10
-44.545593
 20
773.239929
 10
-44.410171
 20
773.151519
 10
-44.256814
 20
773.151519
 10
-44.1441
 20
773.239929
 10
-44.115081
 20
773.382978
  0
LINE
  5
278
100
AcDbEntity
  8
035-DWG
100
AcDbLine
 10
-33.780221
 20
775.1
 30
0.421745
 11
-34.592433
 21
775.1
 31
0.421745
  0
LINE
  5
279
100
AcDbEntity
  8
035-DWG
100
AcDbLine
 10
-38.751452
 20
775.1
 30
0.421745
 11
-38.751452
 21
775.6
 31
0.421745
  0
LWPOLYLINE
  5
27A
100
AcDbEntity
  8
035-DWG
100
AcDbPolyline
 90
        7
 70
     0
 43
0.0
 38
0.421745
 10
-48.199391
 20
774.115966
 10
-48.184438
 20
774.38205
 10
-48.131675
 20
774.653555
 10
-48.068112
 20
774.806894
 10
-47.93034
 20
774.975989
 10
-47.768847
 20
775.068868
 10
-47.590986
 20
775.1
  0
LWPOLYLINE
  5
27B
100
AcDbEntity
  8
025-DWG
100
AcDbPolyline
 90
        6
 70
     0
 43
0.0
 38
0.421745
 10
-47.590986
 20
775.1
 10
-47.598761
 20
775.085822
 10
-47.620905
 20
774.8712
 10
-47.632523
 20
774.579784
 10
-47.637273
 20
774.322778
 10
-47.638485
 20
774.126177
  0
ELLIPSE
  5
27C
100
AcDbEntity
  8
025-DWG
100
AcDbEllipse
 10
-47.699399
 20
774.113088
 30
0.421745
 11
-0.4999917225104582
 21
0.0028770507667781
 31
0.0
210
0.0
220
0.0
230
-1.0
 40
0.027079
 41
-0.000000000001634
 42
1.692773513601811
  0
LWPOLYLINE
  5
27D
100
AcDbEntity
  8
025-DWG
100
AcDbPolyline
 90
       14
 70
     0
 43
0.0
 38
0.421745
 10
-47.638485
 20
774.126177
 10
-47.638706
 20
774.087728
 10
-47.638928
 20
774.049279
 10
-47.639149
 20
774.01083
 10
-47.63937
 20
773.972381
 10
-47.639591
 20
773.933932
 10
-47.639813
 20
773.895484
 10
-47.640034
 20
773.857036
 10
-47.640255
 20
773.818587
 10
-47.640477
 20
773.780139
 10
-47.640698
 20
773.741691
 10
-47.640919
 20
773.703243
 10
-47.641141
 20
773.664796
 10
-47.641362
 20
773.626348
  0
LWPOLYLINE
  5
27E
100
AcDbEntity
  8
025-DWG
100
AcDbPolyline
 90
        2
 70
     0
 43
0.0
 38
0.421745
 10
-47.696691
 20
773.629343
 10
-47.641362
 20
773.626348
  0
LINE
  5
27F
100
AcDbEntity
  8
025-DWG
100
AcDbLine
 10
-46.875837
 20
773.626348
 30
0.421745
 11
-47.641362
 21
773.626348
 31
0.421745
  0
LWPOLYLINE
  5
280
100
AcDbEntity
  8
025-DWG
100
AcDbPolyline
 90
        4
 70
     0
 43
0.0
 38
0.421745
 10
-46.875837
 20
773.626348
 10
-46.747582
 20
773.593743
 10
-46.645317
 20
773.504663
 10
-46.596446
 20
773.382978
  0
LINE
  5
281
100
AcDbEntity
  8
025-DWG
100
AcDbLine
 10
-47.696691
 20
773.629343
 30
0.421745
 11
-47.572448
 21
773.319989
 31
0.421745
  0
LWPOLYLINE
  5
282
100
AcDbEntity
  8
025-DWG
100
AcDbPolyline
 90
        3
 70
     0
 43
0.0
 38
0.421745
 10
-47.092719
 20
773.382978
 10
-47.042142
 20
773.555067
 10
-46.875837
 20
773.626348
  0
LWPOLYLINE
  5
283
100
AcDbEntity
  8
025-DWG
100
AcDbPolyline
 90
        6
 70
     0
 43
0.0
 38
0.421745
 10
-47.572448
 20
773.319989
 10
-47.483665
 20
773.202119
 10
-47.348803
 20
773.142604
 10
-47.211377
 20
773.160649
 10
-47.115729
 20
773.250429
 10
-47.092719
 20
773.382978
  0
LWPOLYLINE
  5
284
100
AcDbEntity
  8
025-DWG
100
AcDbPolyline
 90
        3
 70
     0
 43
0.0
 38
0.421745
 10
-46.100173
 20
773.382978
 10
-46.049596
 20
773.555067
 10
-45.883291
 20
773.626348
  0
LWPOLYLINE
  5
285
100
AcDbEntity
  8
025-DWG
100
AcDbPolyline
 90
        4
 70
     0
 43
0.0
 38
0.421745
 10
-45.883291
 20
773.626348
 10
-45.755035
 20
773.593743
 10
-45.652771
 20
773.504663
 10
-45.6039
 20
773.382978
  0
LINE
  5
286
100
AcDbEntity
  8
025-DWG
100
AcDbLine
 10
-45.883291
 20
773.626348
 30
0.421745
 11
-46.875837
 21
773.626348
 31
0.421745
  0
LWPOLYLINE
  5
287
100
AcDbEntity
  8
025-DWG
100
AcDbPolyline
 90
        6
 70
     0
 43
0.0
 38
0.421745
 10
-46.596446
 20
773.382978
 10
-46.530685
 20
773.239929
 10
-46.395263
 20
773.151519
 10
-46.241906
 20
773.151519
 10
-46.129192
 20
773.239929
 10
-46.100173
 20
773.382978
  0
ENDSEC
  0
SECTION
  2
OBJECTS
  0
DICTIONARY
  5
1A
100
AcDbDictionary
  3
ACAD_GROUP
350
18
  3
ACAD_MLINESTYLE
350
19
  0
DICTIONARY
  5
18
102
{ACAD_REACTORS
330
1A
102
}
100
AcDbDictionary
  0
DICTIONARY
  5
19
102
{ACAD_REACTORS
330
1A
102
}
100
AcDbDictionary
  3
STANDARD
350
1D
  0
MLINESTYLE
  5
1D
102
{ACAD_REACTORS
330
19
102
}
100
AcDbMlineStyle
  2
STANDARD
 70
     0
  3

 62
     0
 51
90.0
 52
90.0
 71
     2
 49
0.5
 62
   256
  6
BYLAYER
 49
-0.5
 62
   256
  6
BYLAYER
  0
ENDSEC
  0
EOF
